Misc. Unsigned Bands - Got It Hard - Never The Same Text Guitar Tab

Learn the song with the online tablature player
This song's for my friends who all know this sweet band. theyre damn awesome
and they r goin places. anyways, here it is guys

Intro Lead Guitar
e:----------------|
B:------------14~~|
G:-------12---16~~|   X2
D:-12h14----14----|
A:----------------|
E:----------------|

Intro Rhythym Guitar
e:----------------|
B:----------------|
G:----------------|
D:-2~~~~~~~~~~~~~~|   X2
A:-2~~~~~~~~~~~~~~|
E:-0~~~~~~~~~~~~~~|

Both Guitars Play the Same Shtuff
e:-----------------------|
B:-----------------------|
G:-----4444--------------|Verse X3
D:-222244444444333444333-|
4:-222222224444333444333-|
E:-0000----2222111222111-|
  PM____________________
|
e:-----------------------|3|
B:-----------------------|3|
G:-----4444--------------|3|Chorus played very quick X6
D:-222244444444333444333-|3|
A:-222222224444333444333-|3|
E:-0000----2222111222111-|3|

Outro Lead Guitar
e:----------------|
B:------------14~~|
G:-------12---16~~|   X2
D:-12h14----14----|
A:----------------|
E:----------------|

outro Rhythym Guitar
e:----------------|
B:----------------|
G:----------------|
D:-2~~~~~~~~~~~~~~|   X2
A:-2~~~~~~~~~~~~~~|
E:-0~~~~~~~~~~~~~~|