Misc. Unsigned Bands - Gotcha - Jazz Goodnight Text Guitar Tab

Learn the song with the online tablature player
Jazz Goodnight
Gotcha!Gotcha!Gotcha! (Bonus CD)

Intro
Bas  A
Piano: A, F#  (weet niet zeker)

Couplet:
I don’t wanna Funk with another:
|----------------------------|
|--/10-8-—5------------------|
|------------7—-5-5---5-7----|
|-------------------7--------|
|----------------------------|
|----------------------------|

A girl, like you    Baby

|-----------------------------|
|-----------------------------|
|--5-----5-7b--------5--------|
|------7----------------7-----|
|-----------------------------|
|-----------------------------|

Blijf in A hangen.

Couplet

Refrein: A(m)

Distortion stuk: A ///////  // C Stop, What you’re funkin for.

Da Dideli dau dau, Dideli dau dau

e|----------------------------------|
B|----------------------------------|
G|-----------5------7-5-7-5---------|
D|--5-7-5-7----7------------7-------|
A|----------------------------------|
E|----------------------------------|

Dideli, Dideli, Dideli, Dideli Dau Dau

|-----------------------------------------|
|-----------------------------------------|
|--7-5-7---7-5-7---7-5-7---7-5-7---5------|
|-------------------------------------7---|
|-----------------------------------------|
|-----------------------------------------|