Misc. Unsigned Bands - Gravis - Meaningless War Text Guitar Tab

Learn the song with the online tablature player
Gravis - Meaningless War Tab

|------------------------------------------------|
|-----------------------------------------7^-----|
|------------------------------------------------|
|-----------6-8-9-11-9-8-6-4--6-8-9-11-9-8-------|  x4
|------------0-0-0--0-0-0-0----0-0-0--0-0--------|
|------------------------------------------------|
             x-x-x  x-x-x-x    x-x-x   x-x-------|

|-------------------|
|-------------------|
|---7--5--444444444-|
|---7--5--444444444-|  x1
|---5--3--222222222-|
|-------------------|
          xxxxxxxx

|-------------------------------------|
|-------------------------------------|
|---9-999999--11-12-11-5-555555-7-5-4-|    x6
|---9-999999--11-12-11-5-555555-7-5-4-|
|---7-777777---9-10--9-3-333333-5-3-2-|
|-------------------------------------|
      xxxxxx             xxxxxx

|-------------------------------------|
|-------------------------------------|
|-------------------------------------|
|---7x7x7-8-7x7x7-8-7x7x7--5555-4444--|    x4
|---5x5x5-6-5x5x5-6-5x5x5--3333-2222--|
|-------------------------------------|
                           xxxx xxxx

|-------------|
|-------------|
|-------------|
|---444444444-| x1
|---222222222-|
|-------------|
    xxxxxxxx

(Play the following behind the solo}

|-------------------------------------|
|-------------------------------------|
|-------------------------------------|
|---7x7x7-8-7x7x7-8-7x7x7--5555-4444--|    x4
|---5x5x5-6-5x5x5-6-5x5x5--3333-2222--|
|-------------------------------------|
                           xxxx xxxx

End of Solo

|-------------------------------------|
|-------------------------------------|
|---9-999999--11-12-11-5-555555-7-5-4-|    x6
|---9-999999--11-12-11-5-555555-7-5-4-|
|---7-777777---9-10--9-3-333333-5-3-2-|
|-------------------------------------|
      xxxxxx             xxxxxx

|-------------------------------------|
|-------------------------------------|
|-------------------------------------|
|---7x7x7-8-7x7x7-8-7x7x7--5555-4444--|    x4
|---5x5x5-6-5x5x5-6-5x5x5--3333-2222--|
|-------------------------------------|
                           xxxx xxxx

|-------------|
|-------------|
|-------------|
|---444444444-| x1
|---222222222-|
|-------------|
    xxxxxxxx

Play the following behind the 2nd solo

|--------------------------------------|
|--------------------------------------|
|--------------------------------------|
|---7-000000-7-000000-7-000000-5-5-4-4-|  x4
|---5-000000-5-000000-5-000000-3-3-2-2-|
|--------------------------------------|
      xxxxxx   xxxxxx   xxxxxx x   x

|----------------------------------------|
|----------------------------------------|
|----------------------------------------|
|---7-000000-7-000000-7-000000-5555-4444-| x2
|---5-000000-5-000000-5-000000-3333-2222-|
|----------------------------------------|
      xxxxxx   xxxxxx   xxxxxx xxxx xxxx

|--------------------------------|
|--------------------------------|
|--------------------------------|
|---45-000-45-000-45-000-5-5-4-4-|  x2
|---23-000-23-000-23-000-3-3-2-2-|
|--------------------------------|
       xxx    xxx    xxx x   x

|-------------------------------------|
|-------------------------------------|
|-------------------------------------|
|---7x7x7-8-7x7x7-8-7x7x7--5555-4444--|    x4
|---5x5x5-6-5x5x5-6-5x5x5--3333-2222--|
|-------------------------------------|
                           xxxx xxxx

|-------------------------|
|-------------------------|
|-------------------------|
|----9--11-12-11-5--7-5-4-| x4
|----7---9-10--9-3--5-3-2-|
|-------------------------|

|------------------------|
|------------------------|
|---9--11-12-11-5--7-5-4-|
|------------------------|   x2
|------------------------|
|------------------------|

|--\9--11-12-11-5--7-5-4-|
|------------------------|   x2
|------------------------|
|------------------------|
|------------------------|
|------------------------|

[Play the following behind Guitar 1 playing the intro]

|-------------------------|
|-------------------------|
|----9--11-12-11-5--7-5-4-|
|----9--11-12-11-5--7-5-4-| x4
|----7---9-10--9-3--5-3-2-|
|-------------------------|

|----------------------------------------------|
|-----------------------------------------7^---|
|----------------------------------------------|
|-----------6-8-9-11-9-8-6-4--6-8-9-11-9-8-----|  x2 Both Guitars
|------------0-0-0--0-0-0-0----0-0-0--0-0------|
|----------------------------------------------|
             x-x-x  x-x-x-x    x-x-x  x-x------|

|---------------------------|
|---------------------------|
|---7--5--444444444-7-5-4-4-|  x1 Both Guitars
|---7--5--444444444-7-5-4-4-|
|---5--3--222222222-5-3-2-2-|
|---------------------------|
          xxxxxxxxx x-x-x

[        END    ]