Misc. Unsigned Bands - Gravity Defied - Waste Of My Time Text Guitar Tab

Learn the song with the online tablature player
Waste of My Time - Gravity Defied

                           intro/outro
e|-------------------------------------------------------------------------|
B|----------0-----------------0-----------------0--------------0-----0-----|
G|-------0-----0-----------0-----0-----------0-----0---------0-------0-----|
D|----4-----------4-----4-----------4-----4-----------4----4-------4-4-----|
A|-2-----------------0-----------------2-----------------5-------0---2-----|
E|-------------------------------------------------------------------------|
                                  2x's

                              verse
e|-------------------------------------------------------------------------|
B|-0-0-0-0-0-0-0-0-0-0-0-0-0-0-0-0-0-0-0-0-0-0-0-0-0-0-0-0-0-0-0-0-0-0-0---|
G|-0-0-0-0-0-0-0-0-0-0-0-0-0-0-0-0-0-0-0-0-0-0-0-0-0-0-0-0-0-0-0-0-0-0-0---|
D|-4-4-4-4-4-4-4-4-4-4-4-4-4-4-4-4-4-4-4-4-4-4-4-4-4-4-4-4-4-4-4-4-4-4-4---|
A|-2-2-2-2-2-2-2-2-0-0-0-0-0-0-0-0-0-0-0-0-0-0-0-0-0-0-0-0-5-5-2-2-2-2-2---|
E|-------------------------------------------------------------------------|
                                 2x's

                             chorus
e|-----------------------------------------|
B|-----------------------------------------|
G|-----------------------------------------|
D|-7-8-7-7-7-8-7-7-7-8-7-7-7-8-7-7---------|
A|-5-5-5-8-5-5-5-8-5-5-5-8-5-5-5-8---------|
E|-----------------------------------------|
                  untill chorus ends

order of parts:

-intro
-Verse one
-Chorus
-Verse two

bridge
same part as verse)
-chorus
-outro