Misc. Unsigned Bands - Greek Fire - Sirens Whisper Text Guitar Tab

Learn song with the online tabulature player
this is an original song, by me and my band Greek Fire. Just thought i'd put this up in 
some one is just bored.

some of our influences are Nightwish, Within Temptation, Wintersun and Sirenia.

Song: Siren's Whisper
Band: Greek Fire

standard tuning

Intro:
---------------------------------------------|
---------------------------------------------|
---------------------------------------------|  just strum that randomly
--2~-----------------------------------------|
--2~-----------------------------------------|
--0~-----------------------------------------|


---------------------------------------------|
---------------------------------------------|
---------------------------------------------|
---------------------------------------------|  x4
---------------------------------------------|
-0000--78--0000--56--0000--34----------------|
 ****      ****      ****


Riff:

---------------------------------------------|
---------------------------------------------|
------------------77-------------------------|
--2~------55------77-7------2~---------------|   x4
--0~------33------55-7------2~---------------|
--0~------33333------5//////0~---------------|
            ***

Chorus:
-----------------------------------|
-----------------------------------|
-------5~--------------------------|
-5~----5~----7~------4~------------|
-5~----7~----7~------4~------------|
-3~----------9~------2~------------|

Solo:
-1312-----------------1213---151412--------------------------------------1214-|
-----1312---------1213-------------151412--------------------------121415-----|
---------1312-1213-----------------------151412--------------121415-----------|
-----------------------------------------------151412--121415-----------------|
------------------------------------------------------------------------------|
------------------------------------------------------------------------------|


-151415----151415---151415-----15141517~--19~//////12~-----|
-------15--------15-------15-------------------------------|
-----------------------------------------------------------|
-----------------------------------------------------------|
-----------------------------------------------------------|
-----------------------------------------------------------|


Repeat Chorus x2

Outro

-------------------------------------------|
-------------------------------------------|
-------------------------------------------|
-5--5--5--5--------2~----------------------|  fade
-5--5--5--5--------0~----------------------|
-333333333333~~----0~----------------------|

that's it, a really simple song, but sounds cool when played correctly, not bad for a 
17 and 16 year olds. xDD