Misc. Unsigned Bands - Greg Sage - On The Run Text Guitar Tab

Learn the song with the online tablature player
TITLE:         On the Run
ARTIST:        Greg Sage
ALBUM:         Straight Ahead
TTRACK #:      07/12
RELEASE YEAR:  1985

[INTRO/MAIN RIFF]
E|-0-|-0-|-0-|-0-|-0-|-0-|
H|-0-|-3-|-0-|-0-|-3-|-0-|
G|-0-|-0-|-0-|-2-|-2-|-2-|
D|-0-|-0-|-0-|-2-|-2-|-2-|
A|-2-|-2-|-2-|-0-|-0-|-0-|
E|-3-|-3-|-3-|---|---|---|

BRIDGE
E|---------3-|
H|---------0-|
G|---------0-|
D|---------0-|
A|---------2-|
E|-0-1-2-3-3-|

VERSES
Repeat the first part for three times and then play the second part.
E|-3-|-2-|-0-|-0-|
H|-0-|-3-|-1-|-0-|
G|-0-|-2-|-2-|-2-|
D|-0-|-0-|-2-|-2-|
A|-2-|---|-0-|-0-|
E|-3-|---|---|---|

E|-3-|-2-|-0-|-0-|
H|-0-|-3-|-1-|-1-|
G|-0-|-2-|-2-|-0-|
D|-0-|-0-|-2-|-2-|
A|-2-|---|-0-|-3-|
E|-3-|---|---|---|

CHORUS
E|-------0-|-0-|
H|-------1-|-1-|
G|-------2-|-0-|
D|-------2-|-2-|
A|-3-2-0-0-|-3-|
E|---------|---|

[STRUCTURE]
INTRO/MAIN RIFF
VERSES
CHORUS
MAIN RIFF
VERSES
CHORUS
MAIN RIFF
VERSES
CHORUS

[NOTES]
Really simple and great song. Just listen to it to find out the arrangement and the strumming.