Misc. Unsigned Bands - Grimm - Monkey Love Text Guitar Tab

Learn song with the online tabulature player
E|------0x3------0-------0-------0--------0-------0-------0-------0--------|
A|---0x3-------0-------0-------0--------0-------0-------0-------0----------|
D|-7x3-------5-------3-------3--------2-------0-------0-------3------------|
G|-------------------------------------------------------------------------|
B|-------------------------------------------------------------------------|
e|-------------------------------------------------------------------------|

E|-----0---------0x3--------0-------0-------0------0------0----------------|
A|---0---------0x3--------0-------0-------0------0------0------------------|
D|-7--------12x3-------10-------8-------8------7------5--------------------|
G|-------------------------------------------------------------------------|
B|-------------------------------------------------------------------------|
e|-------------------------------------------------------------------------|

E|-----0------0------0-------0------0------0------0------0-----------------|
A|---0------0------0-------0------0------0------0------0-------------------|
D|-5------7------8------11------8------7------5------3---------------------|
G|-------------------------------------------------------------------------|
B|-------------------------------------------------------------------------|
e|-------------------------------------------------------------------------|

E|-----0------0------0------0------0x3------0--------0x2------0------------|
A|---0------0------0------0------0x3------0-------0x2-------0--------------|
D|-2------0------3------7------7x3------7------5x2--------8----------------|
G|-------------------------------------------------------------------------|
B|-------------------------------------------------------------------------|
e|-------------------------------------------------------------------------|

E|-----0x2------0------0------0-----0------0-----0-----0-------0-----------|
A|---0x2------0------0------0-----0------0-----0-----0------0--------------|
D|-7x2------8------7------5-----7------5-----3-----2------0----------------|
G|-------------------------------------------------------------------------|
B|-------------------------------------------------------------------------|
e|-------------------------------------------------------------------------|

E|-----0-----0------0-----0------0------0------0------0--------------------|
A|---0-----0------0-----0------0------0------0------0----------------------|
D|-5-----3------2-----0------7------5------3------2------------------------|
G|-------------------------------------------------------------------------|
B|-------------------------------------------------------------------------|
e|-------------------------------------------------------------------------|

E|-----0------0------0------0------0-----0---------------------------------|
A|---0------0------0------0------0-------0---------------------------------|
D|-3------2------5------3------2---------0---------------------------------|
G|-------------------------------------------------------------------------|
B|-------------------------------------------------------------------------|
e|-------------------------------------------------------------------------|

                                                  A.V.                
                                                                 GRIMM 

                     This is the longest               You should learn to
                     and only tab I've ever            fingerpick if you 
                     made.I made this song,            wanna' playthis song
                     the beginning of it
                     is simaler to Spanish
                     Romance.