Misc. Unsigned Bands - Hades Chariot - Spineless Skirmish Text Guitar Tab

Learn the song with the online tablature player
Hades Chariot
Spineless Skirmish

The opening riff is a whole load of open Low B hits slightly palm muted, then this
pattern.

C#|---17--------------17-------------|
G#|-----15----------15--15-----------|
E |-------14------14------14---------|
B |---------15--15-----------15------|
F#|-----------17----------------17---|
B |----------------------------------|

repeat times then cut the last bar short and fill in the remaining bar and a half with
sweeped pattern

|--17---------------15---------------13---------------12----------|
|----15----------15---13----------13---11----------11---10--------|
|------14------14-------12------12-------10------10--------9------|
|--------15--15-----------13--13-----------11--11------------10---|
|----------17---------------15---------------13----------------12-|
|-----------------------------------------------------------------|

The next riff is an open B again, then it slows but is the same riff. Just listen to the
for timing ;)
Then comes a bunch of pinched harmonics – one guitar plays it here:

|---------------------------------------------------------|
|----3**--------------------------------------------------|
|---------------------------------------------------------|
|---------------------------------------------------------|
|---------------------------------------------------------|
|---------------------------------------------------------|

BOSS

Then this:

|---------------------------------------------------------|
|---------------------------------------------------------|
|---------------------------0h5h6p5p0---------------------|
|----------0h5h6p5p0------------------0h5h6p5p0-----------|
|---------------------------------------------------------|
|--0-0-0-0------------0-0-0-------------------------------|

x4

|---------------------------------------------------------|
|---------------------------------------------------------|
|--------------------------0h7h8p7p0----------------------|
|----------0h7h8p7p0-----------------0h7h8p7p0------------|
|---------------------------------------------------------|
|--0-0-0-0-----------0-0-0--------------------------------|

x2

|---------------------------------------------------------|
|---------------------------------------------------------|
|---------------------------0h5h6p5p0---------------------|
|----------0h5h6p5p0------------------0h5h6p5p0-----------|
|---------------------------------------------------------|
|--0-0-0-0------------0-0-0-------------------------------|

|------------------------------------------------|
|------------------------------------------------|
|------------------------------------------------|
|----------0h5h6p5p0-----5-6-5-3-5-3-------------|
|------------------------5-6-5-3-5-3-------------|
|--0-0-0-0---------------5-6-5-3-5-3-------------|

That’s the intro sorted!!!
Now, RIFF
(MAIN VERSE, GETS REPEATED AFTER THE CHORUS)

|-------------------------------------------------------------------|
|-------------------------------------------------------------------|
|-------------------------------------------------------------------|
|--------3-------------------------3-----2h3p2h3p2h3p2--------------|
|----------3-------------------------3-3---------------2h3p2h3p2h3p2|
|-2-2-2-------5--3-3-3--3-5--2-2-2----------------------------------|

x4

the other guitar plays the same apart from the twiddly bit at the end, which is
here:

|---------------------------------|
|---------------------------------|
|----4h5p4h5p4h5p4----------------|
|-------------------4h5p4h5p4h5p4-|
|---------------------------------|
|---------------------------------|

CHORUS

Guitar 1

|----------------------|
|----------------------|
|----------------------|
|-2-2-2-2----10-10-10--|
|-2-2-2-2----10-10-10--|
|-2-2-2-2----10-10-10--|

guitar 2

|-------------------------------------------|
|-------------------------------------------|
|--------------------12---------------------|
|-2-2--4--5--10---------13-12---------------|
|-----------------------------13-12-13------|
|-2-2--4--5--10-----------------------------|

Guitar 1 has 2 breaks between chorus bars:

|--15--------15--------------------------5*-------5*-------|
|-----13--------13-------------------------5*--------5*----|
|--------12--------12--------**OR**----------5*---------5*-|
|----------------------------------------------------------|
|----------------------------------------------------------|
|----------------------------------------------------------|

BEATDOWN

Simple strum on the 3RD FRET from ONE GUITAR, THEN REPEATED BY OTHER GUITAR.

BEATDOWN RYTHMN IS ON FIRST FRET, AND OPEN FRET (easy to figure out by listening). This
the lead parts:

|--7-------7--------5-------5---------|
|---5-----5-5-----5--3-----3-3-----3--|
|----4---4---4---4----2---2---2---2---|
|-----5-5-----5-5------3-3-----3-3----|
|------7-------7--------5-------5-----|
|-------------------------------------|

guitar 2 harmony:

|--12------------12------------10---------10---------|
|----10--------10--10--------10--8------8---8--------|
|------9------9------9------9-----7----7-----7-------|
|-------10--10--------10--10-------8--8-------8------|
|---------12------------12----------10---------10----|
|----------------------------------------------------|