Misc. Unsigned Bands - Hadourbanim - Cal Ma Cheratzit Text Guitar Tab

Learn the song with the online tablature player
Em    B  Am D Em
כבה ירח, שעה קשה
Dm       B  Am     D
כשהוא בורח, היא מרגישה
 D9 Am/G  Am       E
כמה רע לה, פתאום   נטושה
 B Dm   Em
מנסה להתגעגע
 Em      B  Am  D Em
בצד  הדרך יש לה פינה
Dm       B   Am      D
אבל אין ערך, אין מנגינה
 D Am/G  Am   E
מתנגנת במקום  הקנאה
D D4      F     Em
לא נולדנו שווים אף פעם
פזמון:
 G C/C#   C B     G
וכל מה שרצית זה אהבה
Am     E   C   B
אף פעם לא היית קרובה
Am/F#  Am/G Am/Ab
ספגת יצרים בתקווה
Em B Am G   Eb       Em
שתוכלי יום אחד לברוח
 Em    B        Am   D  Em
היא מתעוררת, לא רוצה לעמוד
Dm   B  Am   D
צריך ללכת ולעבוד
D9 Am/G  Am     E
בטלה מזמינה מחשבות
Am B    Dm       Em
שמהן היא רוצה לברוח
 Em      B  Am D Em
אחד אחד ממנה יוצאים
 Dm   B Am  D
היא משדרת בערוצים
D Am/G Am      E
של שנאה ושל כעס עזים
 G     Eb      Em
ומתי כבר יבוא האחד
 G     Am/Bb Am       G/Ab
שיקום, לא יפחד ישנה את הכל
פזמון
סולו:
    Em               D               Am             B
e||-----------------------------------------------------------------|
B||-10b12b12p10-8---10b12-~10--8h10--11b13--12-10-8-----------------|
G||---------------9---------------------------------8h9p8h9p8h9p8h9-|
D||-----------------------------------------------------------------|
A||-----------------------------------------------------------------|
E||-----------------------------------------------------------------|
       Em                  D                Am                 B
e|----------------------------14-14-----14-14-15-15--17b19p15-17b19-|
B|--------~9---10b12p10p8-10s-------15------------------------------|
G|-8-9-11-----------------------------------------------------------|
D|------------------------------------------------------------------|
A|------------------------------------------------------------------|
E|------------------------------------------------------------------|
  Dm                      E
e|---8----17-13h17p13-----------------------------|
B|-----6s-------------15--------12----------------|
G|-7---------------------14p13---------13---------|
D|---------------------------------14-----12h14---|
A|----------------------------------------------11|
E|------------------------------------------------|
   Am          Am/G         Am/F#
e|--------------------12-15-14-17p14-----14-------------|
B|--------------13-15----------------15-----15-------15-|
G|-----14----12-----------------------------------14----|
D|--------14-----------------------------------16-------|
A|-12---------------------------------------------------|
E|------------------------------------------------------|
    Em                 Eb
e|----------10------------------11-----|
B|--8s10s12----~/12----8h10s11----~/11-|
G|-------------------------------------|
D|-------------------------------------|
A|-------------------------------------|
E|-------------------------------------|
   G                        Am           B               Em
e|-------------------17-19-----20----15-17-19--------------||
B|----15----------15--------------17----------------16-17~-||
G|----------14-16-----------17-----------------------------||
D|-------17-------------------------------------13---------||
A|-17------------------------------------------------------||
E|---------------------------------------------------------||
Em      B   Am   D Em
מתוך  השקט, היא מבינה
Dm       B    Am    D
הוא לא יגיע גם לא עוד שנה
Am/F# Am/G Am     E
אבירים מהסוג  שחלמה
  D      F    Em
לא יגיעו לכאן אף פעם