Misc. Unsigned Bands - Half Price - Suicide Bomber Text Guitar Tab

Learn the song with the online tablature player
intro
clean

------------------------------------------------------------|
--------------------------------------6-----6---------------|
----7-----7-----7---5-----5-----5-----------------5---7-----|
------------------------------------------------------------|
--5-----5-----5---5-----5-----5-----5-----5-----5---5-------|
------------------------------------------------------------|

------------------------------------------------------------|
--------------------6-----6----6----------------------------|
----7-----7-----7-----------------5----5----5-7--5----------|
--------------------7-------------------------------7-------|
--5-----5-----5---5-----5-----5--5----5----5----------------|
------------------------------------------------------------|

intro part II-distortion

---------------------------------------------------------------|
--------------------------6-------------------------------6----|
----7-5-7---7-5-7---7-5-7---7-5-7---7-5-7---7-5-7---7-5-7----7-|
---------------------------------------------------------------|
--5-------5-------5---------------5-------5-------5------------|
---------------------------------------------------------------|
x4
put a slight bend on the second last note

verse

---------------------------------------------------------------|
---------------------------------------------------------------|
------------10-------------12------------10--------12-10-------|
--12-----12-10---10-----10-12--12-----12-10--10----12-10-12-10-|
--12-----12-8----10-----10-10--12-----12-8---10----10-8--12-10-|
--10-x12-10------8--x12-8------10-x12-10-----8--x5-------10-8--|

chorus

------------------------------------------------------------|
------------------------------------------------------------|
------------------------------------------------------------|
--1212--10--1212--10-1212--10-12--12------------------------|
--1212--10--1212--10-1212--10-12--12------------------------|
--1010--8---1010--8--1010--8--10--10------------------------|

------------------------------------------------------------|
------------------------------------------------------------|
-------10-12-10----1010----------10-12-10-------------------|
--1212-10-12-10-88-1010-10--1212-10-12-10-33-55-------------|
--1212-8--10-8--88-8-8--10--1212-8--10-8--33-55-------------|
--1010----------66------8---1010----------11-33-------------|x2
figure out the rhythm for the second time

intro part II x1-hold last note and get some feedback

verse x1

then:
-------------------|
-------------------|
--12-10------------|
--12-10-12-10-8-10-|
--10-8--12-10-8-10-|
--------10-8--6-8--|

-----------------------------------------------------------|
-----------------------------------------------------------|
-----------------------------------------------------------|
--5----3----8----10----------------------------------------|
--5----3----6----10----------------------------------------|
--3----1----6----8-----------------------------------------|x2

-----------------------------------------------------------|
-----------------------------------------------------------|
-------10-----------------10---12---14---------------------|
--12---10---8---10---12---10---12---14---------------------|
--12---8----8---10---12---8----10---12---------------------|
--10--------6---8----10------------------------------------|

chorus

interlude
-----------------------------------------------------------|
------------6----------------------------------------------|
--5h7-7---7------5h7p5h7-----------------------------------|
-----------------------------------------------------------|
-----------------------------------------------------------|
-----------------------------------------------------------|

-----------------------------------------------------------|
-----------------------------------------------------------|
--------------10-10-12-12-------------------10-10----------|
--12-12-12-12-10-10-12-12-12-12-12-12-10-10-10-10----------|
--12-12-12-12-8--8--10-10-12-12-12-12-10-10-8--8-----------|
--10-10-10-10-------------10-10-10-10-8--8-----------------|

-----------------------------------------------------------|
-----------------------------------------------------------|
--------------10-10-12-12----------------------------------|
--12-12-12-12-10-10-12-12-12-12-12-12-8---10---------------|
--12-12-12-12-8--8--10-10-12-12-12-12-8---10---------------|
--10-10-10-10-------------10-10-10-10-6---8----------------|

chorus

intro part II(outro)

thats it enjoy and rate it