Misc. Unsigned Bands - Half Stupid - Crystal Stare Text Guitar Tab

Learn song with the online tabulature player
Written and tabbed by Zac Crook.
For lyrics, visit:
http://halfstupidmusic.piczo.com


Intro: X4 
e|---------------------------------|
B|-----------------------------3---|
G|-----------0-----------0---------|
D|-----4-----------4---------------|
A|-5-5---5-5---5-5---5-5---5-5---5-|
E|---------------------------------|


Verse Fig. 1: X4
e|-0--0-0--0-0---3--3-3--3-3-0-2--2-2--2-2-2-2-2-X-3-X-2-2-|
B|-1--1-1--1-1-0-0--0-0--0-0-0-3--3-3--3-3-3-3-3-X-3-X-3-3-|
G|-0--0-0--0-0-0-0--0-0--0-0-0-2--2-2--2-2-2-2-2-X-2-X-2-2-|
D|-2--2-2--2-2-0-0--0-0--0-0-0-0--0-0--0-0-0-0-0-X-0-X-0-0-|
A|-3--3-3--3-3-0-2--2-2--2-2-------------------------------|
E|---------------3--3-3--3-3-------------------------------|


Pre-Chorus: X4                                     *
e|-----------------------------3--3-3--3-3-3--3--3-3--3-3-0-|
B|-----------------------------3--3-3--3-3-3--3--3-3--3-3-0-|
G|-5--5-5--5-5-5-5--5-5--5-5---4--4-4--4-4-4--4--4-4--4-4-0-|
D|-5--5-5--5-5-5-5--5-5--5-5-3-5--5-5--5-5-5--5--5-5--5-5-0-|
A|-3--3-3--3-3-0-3--3-3--3-3-3-5--5-5--5-5-5--5--5-5--5-5---|
E|---------------3--3-3--3-3-3-3--3-3--3-3-3--3--3-3--3-3---|
*Switch to powerchord and kick on distortion on fourth measure.


Chorus: X4
e|-------------------------------------------------------------|
B|-------------------------------------------------------------|
G|-5--5-5--5-5-0-------------0-7--7-7--7-7-7--7--7-7-7-7-7-7-0-|
D|-5--5-5--5-5-0-5--5-5--5-5-0-7--7-7--7-7-7--7--7-7-7-7-7-7-0-|
A|-3--3-3--3-3-0-5--5-5--5-5-0-5--5-5--5-5-5--5--5-5-5-5-5-5-0-|
E|---------------3--3-3--3-3-----------------------------------|


Solo: X2 
e|------------------------------------------7-------------|
B|-10b(12)-10b(12)r-8h10---8~-10p8-10b(12)-10b(12)-8h10---|
G|-----------------------9~-----------------------------9~|
D|--------------------------------------------------------|
A|--------------------------------------------------------|
E|--------------------------------------------------------|

e|---------------------------------------------|
B|-----8---------------------------------------|
G|-0h9---9brbrbr---7~-----7~-9brbrbr---7~\\\p0-|
D|---------------0----0h9------------0---------|
A|---------------------------------------------|
E|---------------------------------------------|


Verse Fig. 2:  X4*
e|-------------------------------------------------------------|
B|-------------------------------------------------------------|
G|-5--5-5--5-5-0-------------0-7--7-7--7-7-7--7--7-7-7-7-7-7-0-|
D|-5--5-5--5-5-0-5--5-5--5-5-0-7--7-7--7-7-7--7--7-7-7-7-7-7-0-|
A|-3--3-3--3-3-0-5--5-5--5-5-0-5--5-5--5-5-5--5--5-5-5-5-5-5-0-|
E|---------------3--3-3--3-3-----------------------------------|
*Play second measure as pre-chorus.


Order:

Intro            (clean/chorus)
Verse Fig. 1     (clean)
Pre-Chorus       (clean)
Chorus           (distortion)
Verse Fig. 1     (clean)
Pre-Chorus       (clean)
Chorus           (distortion)
Solo             (distortion/chorus)
Intro            (clean/chorus)
Verse Fig. 2     (distortion)
Pre-Chorus       (distortion)
Chorus           (distortion)