Misc. Unsigned Bands - Hans Posegga - Die Sendung Mit Der Maus Theme Text Guitar Tab

Learn song with the online tabulature player
This is the short intro theme at the beginning of "Die Sendung mit der Maus"
composed by Hans Posegga in 1971, re-arranged by Stefan Raab in 1996.
I tabbed the original version which is played in the beginning of the TV show.
It's just the main melody, tabbed for playing with just 1 guitar
(originally it's played with brass, piano and so on). I think it's 100% correct, hope 
enjoy it!(;
The whole song exept the brass fill-in is played in a semiquaver triplet feel.

Tuning: Standard
h - Hammer on


e|---------10------------------------------------------------------|
B|--10h11-----11-------------11------------------------------------|
G|--------------10--10--9h10---10-7--------------------------------|
D|------------------------------------8---8------------8------8-5--|
A|-------------------------------------10-----10--8-10-------------|
E|-----------------------------------------------------------------|


e|-----------------------------------------------------------|
B|--8-8--8----------------------7h8--8-8---------------------|
G|-----------7-10---10-7-10----------------7-10---10-7-10----|
D|-----------------------------------------------------------|
A|-----------------------------------------------------------|
E|-----------------------------------------------------------|


e|-----------------9---------------8-------------------------|
B|---11--11-8--11-----11--11-8-11----------11---11----13-----|
G|---------------------------------------12---12---12--------|
D|-----------------------------------------------------------|
A|-----------------------------------------------------------|
E|-----------------------------------------------------------|
                                         (brass fill-in)

e|---------10-----------------------------------------------------------|
B|--10h11-----11-------------11-------------------------------------11--|
G|--------------10--10--9h10---10--7---------------------10--10-12------|
D|------------------------------------8----8------8--12-----------------|
A|-------------------------------------10-----10------------------------|
E|----------------------------------------------------------------------|