Misc. Unsigned Bands - Havoc - Cause For Rebellion Text Guitar Tab

Learn the song with the online tablature player
The Havoc are an up-and-coming Christian streetpunk band out of California.  They are
signed by Punkcore (with other favorites such as the Virus and Cheap Sex).  This song
is on both their "Who's Gonna Die?" 7" and their "Our Rebellion has Just Begun" CD/LP.
It's one of my very favorites.

                             CAUSE FOR REBELLION - The Havoc

e|---------------------------------------------------------------------------|
B|----5----8--6--5--6----6--5--6--5---------5----8--6--5--6----6--5--6--5----|
G|----5----7--5--5--5----5--5--5--5---------5----7--5--5--5----5--5--5--5----|
D|----5---------------------------5---------5---------------------------5----|
A|---------------------------------------------------------------------------|
E|---------------------------------------------------------------------------|

e|---------------------------------------------------------------------------|
B|----8----8--6--5--6----6--5--3--5----5--3--1--3----3--1--0-----------------|
G|---------------------------------------------------------------------------|
D|---------------------------------------------------------------------------|
A|---------------------------------------------------------------------------|
E|---------------------------------------------------------------------------|

The slides and rythm are really easy so you guys get to go for that.