Misc. Unsigned Bands - Headrush - These Are Dark Days Text Guitar Tab

Learn the song with the online tablature player
These are Dark Days

Intro

(Free Time)

The Intro Is a little weird i saw some guy doing this on a video,
and i thought it was cool so i figured it out. Lay your right hand's
1st finger on top of the strings on the 12th fret. Do not press down
just rest your finger gently on top of the strings. Then pull of on the
fret as directed below and you'll get a cool harmonic sound.

|-12*-|-8p5p0-8p5p0-8p5p0-------------------------------------|=
|-12*-|-------------------8p5p0-8p5p0-8p5p0-------------------|=
|-12*-|-------------------------------------7p5p0-7p5p0-7p5p0-|=
|-12*-|-------------------------------------------------------|=
|-12*-|-------------------------------------------------------|=
|-12*-|-------------------------------------------------------|=

|-------------------------------------------------------------|
|-------------------------------------------------------------|
|-------------------------------------------------------------|
|-7p5p0-7p5p0-7p5p0-------------------------------------------|
|-------------------7p5p0-7p5p0-7p5p0-------------------------|
|-------------------------------------8p5p0-8p5p0-8p5p0-------|

Bridge
both guitars)

(rhythm)

|-5-----5-----5---5--|-----5-----5-2-----2-|-----3---3p2---5------|
|-5-----5-----5---5--|-----5-----5-3-----3-|-----3---3-----5------|
|-2-x-x-2-x-x-2-x-2--|-x-x-2-x-x-2-2-x-x-2-|-x-x-2-x-2---x-2------| 2x
|-2-x-x-2-x-x-2-x-2--|-x-x-2-x-x-2-0-x-x-0-|-x-x-0-x-0---x-2------|
|--------------------|---------------------|----------------------|
|--------------------|---------------------|----------------------|

(Lead Comes In On Third Time)

|-------------------------------|---------------------------------|
|-10---10---10---10----10---10--|-7---7---7h8-7-7---10------------|
|-9----9----9p7--9-----9----9p7-|-7---7---7---7-7---9-------------| 2 more times
|-7----7----7----7-----7----7---|-7---7---7h9-7-7---7-------------|
|-------------------------------|---------------------------------|
|-------------------------------|---------------------------------|

Verse
4x)

|-5-----5-----5---5--|-----5-----5-2-----2-|-----3---3p2---5------|
|-5-----5-----5---5--|-----5-----5-3-----3-|-----3---3-----5------|
|-2-x-x-2-x-x-2-x-2--|-x-x-2-x-x-2-2-x-x-2-|-x-x-2-x-2---x-2------|
|-2-x-x-2-x-x-2-x-2--|-x-x-2-x-x-2-0-x-x-0-|-x-x-0-x-0---x-2------|
|--------------------|---------------------|----------------------|
|--------------------|---------------------|----------------------|

|-------------------------------|---------------------------------|
|-10---10---10---10----10---10--|-7---7---7h8-7-7---10------------|
|-9----9----9p7--9-----9----9p7-|-7---7---7---7-7---9-------------|
|-7----7----7----7-----7----7---|-7---7---7h9-7-7---7-------------|
|-------------------------------|---------------------------------|
|-------------------------------|---------------------------------|

Pre-Chorus

|-------------------------------|---------------------------------|
|-------------------------------|---------------------------------|
|-2---2---2-2-0-4---4---4-4-0---|---------------2---2-2-----0-----|
|-2---2---2-2-0-4---4---4-4-0-2-|-2---2-2-------2---2-2-----0-----|3x
|-0---0---0-0-0-2---2---2-2-0-2-|-2---2-2-------0---0-0-----0-----|
|-----------------------------0-|-0---0-0-0-3-4-------------------|

|-------------------------------|---------------------------------|
|-------------------------------|---------------------------------|
|-2---2---2-2-0-4---4---4-4-0---|---------------------------------|
|-2---2---2-2-0-4---4---4-4-0-2-|---------------------------------|4th time
|-0---0---0-0-0-2---2---2-2-0-2-|---------------------------------|
|-----------------------------0-|---------------------------------|

Chorus
both guitars 4x) Hold last chord on 4th time.

(rhythm)

|----------------|-----------------|----------------|----------------|
|------3----1----|-----------------|------3----1----|----------------|
|------2----0----|-----------------|------2----0----|------5-------2-|
|------0----2----|-5-----5-----5---|------0----2----|-5--x-5--x--x-2-|
|-----------3----|-2-----2-----2h3-|-----------3----|-5--x-3--x--x-0-|
|----------------|-----------------|----------------|-3--------------|

(lead)

|----------------|-----------------|----------------|----------------|
|----------------|-----------------|----------------|----------------|
|------7~~~-5~~~-|-4-----4-----4h5-|------7~~~-5~~~-|--------------2-|
|----5-7~~~-5~~~-|-5-----5-----5---|----5-7~~~-5~~~-|--------------2-|
|-/7-------------|-----------------|-/7-------------|------3b3.5p0-0-|
|----------------|-----------------|----------------|-3bp0-----------|

Verse 4x

Pre-Chorus 4x

Chorus 3x

Bridge

|----------------|-----------------|----------------|------------------|
|----------------|-----------------|----------------|------------------|
|------7~~~-5~~~-|-4-----4-----4h5-|------7~~~-5~~~-|------------------|
|----5-7~~~-5~~~-|-5-----5-----5---|----5-7~~~-5~~~-|-2--2-2-2-2-2-2-2-|
|-/7-------------|-----------------|-/7-------------|-2--2-2-2-2-2-2-2-|
|----------------|-----------------|----------------|-0--0-0-0-0-0-0-0-|

|------------------|
|------------------|
|------------------|\
|-2--2-2-2-2-2-2-2-| repeat this 2x (but on the forth time lead starts the solo)
|-2--2-2-2-2-2-2-2-|/
|-0--0-0-0-0-0-0-0-|

Solo

|----------------------------|-----------------------|------------------||
|-17b19~-r17-pb19-r17-pb20~~-|-7-10b12~-7------------|------------------||
|----------------------------|------------9-7b7.5----|------------------||
|----------------------------|--------------------9~-|-----------5-7/9~-||
|----------------------------|-----------------------|-----5-5-7--------||
|----------------------------|-----------------------|-7-7--------------||

||-14b15---14b15-14b15-----------|--------------------------------||
||-15b16---15b16-15b16-----------|--------------------------------||
||---------------------16p14h16~-|--------------------------------||
||-------------------------------|-------12----12----12-12-14/16~-||
||-------------------------------|-12h14----14----14--------------||
||-------------------------------|--------------------------------||

||-------------|-------------------8b9-|-22b24~~-22p19-22b24~~-||
||-------------|-------------8-10~-----|-----------------------||
||-------------|-------5-7/9-----------|-----------------------||
||-------------|-5-5-7-----------------|-----------------------||
||------7p5h7~-|-----------------------|-----------------------||
||-0w/\--------|-----------------------|-----------------------||

||-14h17p14-----------------------------------------------------||
||----------17p14-----------------------------------------------||
||----------------16p14----14~----------------------------------||
||----------------------16-----x\~~~~~~~~~~---------------------||
||-----------------------------x\~~~~~~~~~~-2---(2w\)---(2w\)---||
||------------------------------------------0---(0w\)---(0w\)---||

||-------f*~~~~~~~w\-------|
||-------f*~~~~~~~w\-------|
||-------f*~~~~~~~w\-------|
||-------f*~~~~~~~w\-------|
||-(2w\)-f*~~~~~~~w\-------|
||-(0w\)-f*~~~~~~~w\-------|

Interlude
3x) [both guitars]

|----------------------|----------------------|-3--------------------|
|----------------------|----------------------|-3--------------------|
|-----------/7~~~-5~~~-|-----------/7~~~-5~~~-|-2---------/7~~~-5~~~-|2x
|-----------/7~~~-5~~~-|-----------/7~~~-5~~~-|-0---------/7~~~-5~~~-|
|-2--------------------|-2--------------------|----------------------|
|-0-----3-4------------|-0-----3-4------------|-------3-4------------|

|----------------------|----------------------|----------------------|
|----------------------|----------------------|----------------------|
|-----------/7~~~-5~~~-|-----------/7~~~-5~~~-|-2--2-2--2-2-2-2-2-0--|
|-----------/7~~~-5~~~-|-----------/7~~~-5~~~-|-2--2-2--2-2-2-2-2-0--|
|-2--------------------|-2--------------------|-0--0-0--0-0-0-0-0-0--|
|-0-----3-4------------|-0-----3-4------------|----------------------|

|----------------------|----------------------|----------------------|
|----------------------|----------------------|----------------------|
|-4--4-4--4-4-4-4-4-0--|-5--5-5--5-5-5-5-5-0--|-7---7---8-9----------|
|-4--4-4--4-4-4-4-4-0--|-5--5-5--5-5-5-5-5-0--|-7---7---8-9-(x\~~~~~)|
|-2--2-2--2-2-2-2-2-0--|-3--3-3--3-3-3-3-3-0--|-5---5---6-7-(x\~~~~~)|
|----------------------|----------------------|----------------------|
                                                           (lead only)

Outro [Chorus] (repeat till fade)

when it fades out completely the lead guitar ends the song with this harmonic.
To get this harmonic do what it said for the intro but you're not doing
the pull off hammer on harmonic. all you do is take your finger off the
strings as you pluck them and you get and artificial harmonic.

(whammy bar optional)

|-12*w~-|
|-12*w~-|
|-12*w~-|
|-12*w~-|
|-12*w~-|
|-12*w~-|

Legend:

b - Bend
r - release
p - pull-off
h - hammer-on
x - scratch
/ - slide up
\ - slide down
w - whammy bar
w~ - whammy bar vibrato
w/ - pull whammy bar (ascend)
w\ - push whammy bar down (dive)
~ - vibrato
x\~ - pickscrape
(0) - optional note
W (0x) - hold for specific amount of measures
* - harmonic
f* - feedback

This is dedicated to my friends sister (Amber Robinson)

God Bless Amber!