Misc. Unsigned Bands - Heated Vengence - Kill Text Guitar Tab

Learn the song with the online tablature player
Kill
e----------------------------------------------------|
B----------------------------------------------------|
G----------------------------------------------------|
D---------------------------------10-10-10--12-------|
A---10--10-p-10-10- 10-10^-10-10--8--8--8---10-------|
E---8---8--p-8--8---8--8^--8--8----------------------|

KILL KILL KILL

e------------------------------------------------------|
B------------------------------------------------------|
G------------------------------------------------------|
D------------------------------------------------------|
A--12--12----7---7----7--------------------------------|
E--10--10----5---5----5--------------------------------|