Misc. Unsigned Bands - Heavy Competition 12 - By The Gates Of Liandri Text Guitar Tab

Learn song with the online tabulature player
e|----------------------------------------------------------------------------|
B|----------------------------------------------------------------------------|
G|-------9------10-----5------7-----------------------------------------------|
D|---7-7----7-7----7-7----7-7---7-7-7-7---------------------------------------|
A|----------------------------------------------------------------------------|
E|----------------------------------------------------------------------------|

e|----------------------------------------------------------------------------|
B|---------9-----10-----5-----4-----7-----------------------------------------|
G|-----7-7---7-7----7-7---7-7---5-5-------------------------------------------|
D|----------------------------------------------------------------------------|
A|----------------------------------------------------------------------------|
E|----------------------------------------------------------------------------|