Misc. Unsigned Bands - Hide Your Intention - Faster Than You Can Text Guitar Tab

Learn the song with the online tablature player
                             FASTER THAN YOU CAN - Hide Your Intention

e|------------------------|
B|----2-2-2-2-2-2-2-2-----|
G|------------------------|  X5
D|---4-4-4-4--------------|
A|-----------4-4-4-4------|
E|------------------------|

e|------------------------|
B|------2---2-2--2-2-2-2--|
G|------------------------|  X3
D|---4-4-4-4-4------------|
A|--------------4-4-4-4---|
E|------------------------|

e|------------------------|
B|------2---2-2-----------|
G|------------------------|
D|---4-4-4-4-4------------|
A|--------------4---------| Let the last note ring.
E|------------------------|

e|------------------------------------------------------|
B|------------------------------------------------------|
G|------------------------------------------------------|  X2
D|--3---------------------------------------------------|
A|--3-----5-0-3-0-----5-0-3-0-------5-0-3-0-----5-0-3-0-|
E|--3-0-0---------0-0---------3-0-0---------0-0---------|

Verse

e|------------------------------------------------------------|
B|------------------------------------------------------------|
G|------------------------------------------------------------| X3
D|-3-3-0-0---------0-0---------3-3-0-0------------------------|
A|-3-3-0-0-5-0-3-0-0-0-5-0-3-0-3-3-0-0------------------------|
E|-3-3-0-0---------0-0---------3-3-0-0------------------------|

Pre-Chorus

e|------------------------------------------------------------|
B|------------------------------------------------------------|
G|------------------------------------------------------------|
D|-3-3-0--0---------0-0---------3-3-0-x0x0x0x0x0x0x0x4x4x4x4x4x4x4x4x-|
A|-3-3-0--0-5-0-3-0-0-0-5-0-3-0-3-3-0-x0x0x0x0x0x0x0x4x4x4x4x4x4x4x4x-|
E|-3-3-0--0---------0-0---------3-3-0-x0x0x0x0x0x0x0x4x4x4x4x4x4x4x4x-|

Chorus

e|------------------------------------------------------------|
B|------------------------------------------------------------|
G|------------------------------------------------------------| X2
D|-5555555555555555555555555555/77777777/99999999-------------|
A|-5555555555555555555555555555/77777777/99999999-------------|
E|-3333333333333333333333333333/55555555/77777777-------------|

Verse

Pre Chorus:

Chorus

Breakdown
On the way, not done yet.

Chorus

| x  Mute note