Misc. Unsigned Bands - High Octane - Toxic Waste Text Guitar Tab

Learn song with the online tabulature player
-------------------------------------------------------------------------------
                             toxic waste -high octane
-------------------------------------------------------------------------------
Tabbed by:jason
Email:not have one

Tuning:c

e------------------------------------------------|
B|-----------------------------------------------|
G|-----------------------------------------------|
D|4-4-4-4-4-4-4-4-4-2-2-2-2-2-2-2-2-2------------|
A|4-4-4-4-4-4-4-4-4-2-2-2-2-2-2-2-2-2------------|
E|2-2-2-2-2-2-2-2-2-0-0-0-0-0-0-0-0-0------------|
  pm     o  pm     o  pm      o pm
e|-------------------------------------------------------------------------|
B|-------------------------------------------------------------------------|
G|-------------------------------------------------------------------------|
D|4-4-4-4-4-4-4-4-4-2-2-2-2-2-2-2-2-2-4-4-4-4-4-4-4-4-4-2-2-2-2-2-2-2-2-2--|
A|4-4-4-4-4-4-4-4-4-2-2-2-2-2-2-2-2-2-4-4-4-4-4-4-4-4-4-2-2-2-2-2-2-2-2-2--|
E|2-2-2-2-2-2-2-2-2-0-0-0-0-0-0-0-0-0-2-2-2-2-2-2-2-2-2-0-0-0-0-0-0-0-0-0--|
  pm      o pm   o  pm     o pm    o pm      o pm    o pm      o pm    o
e|-------------------------------------------------------------------------|
B|-------------------------------------------------------------------------|
G|-------------------------------------------------------------------------|
D|2-2-2-2-2-2-2-2-4-4-4-4-4-4-4-4-2-2-2-2-2-2-2-2-7-7-7-7-7-7-7-7-5-5-5-5--|
A|2-2-2-2-2-2-2-2-4-4-4-4-4-4-4-4-2-2-2-2-2-2-2-2-7-7-7-7-7-7-7-7-5-5-5-5--|
E|0-0-0-0-0-0-0-0-2-2-2-2-2-2-2-2-0-0-0-0-0-0-0-0-5-5-5-5-5-5-5-5-3-3-3-3--|

e|--------------------------------------------------------------------------|
B|--------------------------------------------------------------------------|
G|--------------------------------------------------------------------------|
D|5-5-5-3-3-3-2----------2-4-4-4-4-4-4-4-4-4-4-2-2-2-2-2-2-2-2-2-2-2-2-2-2--|
A|5-5-5-3-3-3-2------1-2-2-4-4-4-4-4-4-4-4-4-4-2-2-2-2-2-2-2-2-2-2-2-2-2-2--|
E|3-3-3-1-1-1-0---15\2-2-0-2-2-2-2-2-2-2-2-2-2-0-0-0-0-0-0-0-0-0-0-0-0-0-0--|
                            pm      o pm    o pm      o pm    o
e|-------------------------------------------------------------------------|
B|-------------------------------------------------------------------------|
G|-------------------------------------------------------------------------|
D|-------------------------------------------------------------------------|
A|2-2-4-4-4-4-4-4-4-4-7-7-7-7-7-7-7-7-5-5-5-5-5-5-5-5-3-3-3-------1-2-2-4--|
E|0-0-2-2-2-2-2-2-2-2-5-5-5-5-5-5-5-5-3-3-3-3-3-3-3-3-1-1-1---15\-2-2-0-2--|

e|---------0---|
B|--------0----|
G|--------0----|
D|--------0----|
A|2-x-3--0-----|
E|2-x-3--0-----|
         h
  o  pm off
  pm palm mute
| /  slide up
| \  slide down
| h  hammer-on
| p  pull-off
| ~  vibrato
| +  harmonic
| x  Mute note
===============================================================================