Misc. Unsigned Bands - Honestly - This Perfect Thing Text Guitar Tab

Learn the song with the online tablature player
Tabbed & Arranged by: Josh Daley

Intro/verse:

--0----0----0----0----|
--0----3----0----0----|
--0----2----2----1----|
--0----0----2----2----|
--2---------0----2----|
--3--------------0----|

Chorus

--0----0----0----0--0----|
--0----3----0----0--0----|
--4----2----2----4--4----|
--4----0----2----2--2----|
--2---------0----x--0----|
-----------------4--0----|

Bridge

--0----0----0----0----0----0----0--------|
--0----2----0----0----0----2----0--------|
--0----4----0----4----0----4----1--------|
--0----2----0----2----0----2----2--------|
--2----0----2----x----2----0----2--------|
--3---------3----4----3---------0--------|

Interlude

--0----0----0----0--0----|
--0----3----0----0--0----|
--4----2----2----4--4----|
--4----0----2----2--2----|
--2---------0----x--0----|
-----------------4--0----|

Outro

--0----0----0----0----|
--0----3----0----0----|
--0----2----2----1----|
--0----0----2----2----|
--2---------0----2----|
--3--------------0----|