Misc. Unsigned Bands - Horseshoes And Handgrenades - Even The Deaf Text Guitar Tab

Learn the song with the online tablature player
Horseshoes and Handgrenades
Even the Deaf

Intro/Verse

 Even the deaf--Hear what you-------stomach turns---------sight of your face

e:-----*---------------*---------------------*-----------------*------------
b:-----4---------------4--------------1----1/4---1-------------3--------3/4-
g:--0-----0-0------5-------5---5---------------------0------0---------------
d:--------------------------------------------------------------------------
a:-3-3-----3----------------------------------------------1--1-----1--------
e:---------------4---4-------4------1---1----------1------------------------

Last measure of verse
           *                    *                *            **     **
  So if you don't mind I'd like to get high                  I told  you take

e:--------------------------------------------------------------------------
b:---------4--------------------4-----------1---1/4-1-----------------------
g:----0-------0---0-------5-------5--5-------------------0------------------
d:--------------------------------------------------------------------------
a:--3---3-------3-----------------------------------------------1-----2------
e:---------------------4-----4------4-----1---1--------1--------------------

CHORUS
  nothing--granted     read my mind
e:--------------------------------------------------------------------------
b:--44444--44444-4444/66666/33333h0-------------------------------------------
g:--00000--00000-0000-00000-00000--0-------------------------------------------
d:--------------------------------------------------------------------------
a:--33333--33333-3333/55555/xxxxx----------------------------------------------
e:--------------------------33333----------------------------------------------
(note: the rhythm of the Chorus is 1-eeh-uh-and-uh 2eeh-uh-and-uh 3eeh-uh-and-uh
4eeh-uh-and-uh-uh. Like 3-eeh-uh-and-uh 3-eeh-uh-and-uh 3/5 eeh-uh-and-uh
G-3eeh-uh-and-uh-uh)

Solo

Rhythm same as chorus
e:-----------------------------------------------------------
b:---------------------------6-6b(8)-11-11b(13)(13)(13rb11)--
g:--5555h3-5555h3-5555h3--5/7--------------------------------
d:-----------------------------------------------------------
a:-----------------------------------------------------------
e:-----------------------------------------------------------

e:-----------------------------------------------
b:-11b(13)(13)(13rb11)---11b(13)(13)(13rb11)-8---
g:-----------------------------------------------
d:-----------------------------------------------
a:-----------------------------------------------
e:-----------------------------------------------

                                                           *  *
e:----------------------------------------------------10---7--8--
b:--------------------------------------8------8--------8--------
g:--------8------8------8------8--8h10h8-8h10h8-8h10h8-----------
d:--8h10h8-8h10h8-8h10h8-8h10h8----------------------------------
a:---------------------------------------------------------------
e:---------------------------------------------------------------

Lyrics
Verse
Even the deaf don't care to hear what you say
And my stomach turns at the site of your face
So I turn my back and look the other way
But your sovereign shadow loods so somber and strange
A conscience I lack and lack of words to say
But what can be said when satan stares in your face
And this could last a lifetime
But if you don't mind I'd like to get high

Chorus
I told you
Take nothing for granted you can't read my mind
Didn't work like you planned it cause this plan was mine
To love is to chance it I won't swallow my pride
So while I'm on this planet I'll have peace of mind
Cause weapings for losers and losers will find
It's a waste of time

2nd Verse
I joke and I laugh at the games that you play
How you think you've obtained the advantage I've gained
How you think it's on track and how it's going your way
How so seemingly smart, such a sucker would stay
From a conscience I lack with lack of words to say
But my stomach still turns at the sight of your face
So this won't last a lifetime
And if you don't mind I'd like to get high

back to chorus
solo
back to chorus