Misc. Unsigned Bands - House Of Glass - Kings Without Crowns Text Guitar Tab

Learn song with the online tabulature player
This is HOG's Version Of Sweet Blasphemy.
Andy, Pan, Jinxx, Sandra, and Chris Wrote This Song Together.
Soo Both BVB And HOG Own Ths Song

1st-Eb
2nd-Bb
3rd-Gb
4th-Db
5th-Ab
6th-Db

|---------------------------------------------------------------------|
|---------------------------------------------------------------------|
|---------------------------------------------------------------------|
|--0--0-00---00-0-0--4--4-44----7--77-6-6-6---------------------------|
|--0--0-00---00-0-0--4--4-44----------------6-------------------------|
|--0--0-00---00-0-0--4--4-44------------------------------------------|

|---------------------------------------------------------------------|
|---------------------------------------------------------------------|
|-------------------------------7--77-6-6-6---------------------------|
|--0--0-00---00-0-0--4--4-44----------------6-------------------------|
|--0--0-00---00-0-0--4--4-44------------------------------------------|
|--0--0-00---00-0-0--4--4-44------------------------------------------|

|---------------------------------------------------------------------|
|---------------------------------------------------------------------|
|---------------------------------------------------------------------|
|--0--0-00---00-0-0--4--4-44----7--77-6-6-6---------------------------|
|--0--0-00---00-0-0--4--4-44----------------6-------------------------|
|--0--0-00---00-0-0--4--4-44------------------------------------------|

|---------------------------------------------------------------------|
|---------------------------------------------------------------------|
|-------------------------------7--77-6-6-6---------------------------|
|--0--0-00---00-0-0--4--4-44----------------6-------------------------|
|--0--0-00---00-0-0--4--4-44------------------------------------------|
|--0--0-00---00-0-0--4--4-44------------------------------------------|