Misc. Unsigned Bands - Hunter Petway - Desire Text Guitar Tab

Learn song with the online tabulature player
This is just the Intro for now
                       I will finish rest later on.



Things to know,

h - hammer on
~ - let ring



Intro

|---------------------------------------|
|---------------------------------------|
|---------------------------------------|
|----------5h6----------------6~-5~-----|
|-------------------5h6-------6~-5~-----|
|--333-3-3------3-3------3-3--6~-5~-----|

|---------------------------------------|
|---------------------------------------|
|---------------------------------------|
|----------5h6--------------------------|
|-------------------5---6---------------|
|--333-3-3------3-3---3----3-3-1~-------|