Misc. Unsigned Bands - I Like You - Closer To You Text Guitar Tab

Learn song with the online tabulature player
This is my first tab, but I know it's right because I wrote this song.

Intro/verse
  G       A6       Em7     D
e|---3-------2--------0-------2--|
B|---3-------2--------3-------3--|
G|---0-------2--------0-----2-2--|
D|---0-----2-2--------2----0--0--| x7
A|-2------0---------2------------|
E|3----------------0-------------|

End verse on G
e|-3~
B|-3~
G|-0~
D|-0~
A|-2~
E|-3~

Chorus
  C              Am             F              G
e|0-0-0---0-------0-0-0---0-------1-1-1---1-------3-3-3---3-------|
B|1-1-1---1-------1-1-1---1-------1-1-1---1-------3-3-3---3-------|
G|0-0-0---0-------2-2-2---2-------2-2-2---2-------0-0-0---0-------|
D|2-2-2---2-------2-2-2---2-------3-3-3---3-------0-0-0---0-------| x2
A|3-3-3---3-------0-0-0---0-------3-3-3---3-------2-2-2---2-------|
E|x-x-x---x-------x-x-x---x-------1-1-1---1-------3-3-3---3-------|
(the first chorus doesn't have that last stroke of the G chord)

(Verse) x5

Bridge
  C               D               A               F       D
e|xxxxxxxxxxxxxxxxxxxxxxxxxxxxxxxxxxxxxxxxxxxxxxxxxxxxxxxxxxxxxxxx
B|xxxxxxxxxxxxxxxxxxxxxxxxxxxxxxxxxxxxxxxxxxxxxxxxxxxxxxxxxxxxxxxx
G|55555555555555557777777777777777xxxxxxxxxxxxxxxx1010101077777777
D|5555555555555555777777777777777777777777777777771010101077777777
A|3333333333333333555555555555555577777777777777778888888855555555
E|xxxxxxxxxxxxxxxxxxxxxxxxxxxxxxxx5555555555555555xxxxxxxxxxxxxxxx

  C               D               A               F       G
e|xxxxxxxxxxxxxxxxxxxxxxxxxxxxxxxxxxxxxxxxxxxxxxxxxxxxxxxxxxxxxxxx
B|xxxxxxxxxxxxxxxxxxxxxxxxxxxxxxxxxxxxxxxxxxxxxxxxxxxxxxxxxxxxxxxx
G|55555555555555557777777777777777xxxxxxxxxxxxxxxx1010101012121212
D|5555555555555555777777777777777777777777777777771010101012121212 x5
A|3333333333333333555555555555555577777777777777778888888810101010
E|xxxxxxxxxxxxxxxxxxxxxxxxxxxxxxxx5555555555555555xxxxxxxxxxxxxxxx

Ending
  C               D               A               F       D
e|-----------------------------------------------------------------|
B|-----------------------------------------------------------------|
G|-----------------------------------------------------------------|
D|-----------------------------------------------------------------|
A|33333333333333335555555555555555----------------8888888855555555-|
E|--------------------------------5555555555555555-----------------|

End on
  C
e|x
B|x
G|5~
D|5~
A|3~
E|x

Lyrics
1st Verse
I think about you all the time
No matter what I do can't get you off of my mind
I tossed the pebble at the glass
That night you gave me a heart attack

Chorus
I'm far too emarrassed to tell you how I feel
So I'll put it in this song that you may never hear
Everything you say and everything you do
Make me want to be so much closer to you

2nd verse
I'll play you anything just name the song
But please don't make me sing you this one
If you bring the notes then I'll provide the beat
We'll make our own song and it'll sound so sweet

(chorus)

Bridge
It's so cold in the hall
But your warmth is just beyond that wall
I can't wait until I see you again
And I hope that you will always be my friend

(chorus)x3

Ending
Closer to you
Closer to you
I wanna be so much
Closer to you