Misc. Unsigned Bands - I Shot Jr - Thin Ice Text Guitar Tab

Learn the song with the online tablature player
Intro
Guitar 1
|---------8-----------8---------------------------|
|---6---6---6---6---6---6---6---6-----------------|
|-7---7-------7---7-------9---9-------------------|
|-------------------------------------------------|
|-------------------------------------------------|
|-------------------------------------------------|

|---------8-------------------0-------------------|
|---6---6---6---6---6------8----8-----8-----------|
|-7---7-------7---7----/10---------10-------------|
|-------------------------------------------------|
|-------------------------------------------------|
|-------------------------------------------------|

Guitar 2
|-------------------------------------------------|
|-------------------------------------------------|
|-------------------------------------------------|
|-------------0-0-0-0-----0000-0---0-0---0-0---0--|
|-8p0---------0-0-0-0-----0000-0---0-0---0-0---0--|
|-----0-2b----0-0-0-0-----0000-0---0-0---0-0---0--|

|-------------------------------------------------|
|-------------------------------------------------|
|-------------------------------------------------|
|-8--0---8---0-0---0000--00000-0-0-0-0-0-0-0------|
|-8--0---8---0-0---0000--00000-0-0-0-0-0-0-0------|
|-8--0---8---0-0---0000--00000-0-0-0-0-0-0-0------|

Chorus
Guitar 1
|-------------------------------------------------|
|-------------------------------------------------|
|-------------------------------------------------|
|-------------0-0-0-0-----0000-0---0-0---0-0---0--|
|-8p0---------0-0-0-0-----0000-0---0-0---0-0---0--|
|-----0-2b----0-0-0-0-----0000-0---0-0---0-0---0--|

|-------------------------------------------------|
|-------------------------------------------------|
|-------------------------------------------------|
|-8--0---8---0-0---0000--00000-0-0-0-0-0-0-0------|
|-8--0---8---0-0---0000--00000-0-0-0-0-0-0-0------|
|-8--0---8---0-0---0000--00000-0-0-0-0-0-0-0------|

Guitar 2
|---------------------------------------|
|---------------------------------------|
|-1010101010101010101010--9-9-9-9-9/----|
|---------------------------------------|
|-8-8-8-8-8-8-8-8-8-8-8-8-7-7-7-7-7/----|
|---------------------------------------|

2nd half of chorus:
Guitar 1
|---------------------------------------|
|---------------------------------------|
|-1010101010101010101010--9-9-9-9-9/----|
|---------------------------------------|
|-8-8-8-8-8-8-8-8-8-8-8-8-7-7-7-7-7/----|
|---------------------------------------|

Guitar 2
|----------------------------------------------------|
|----------------------------------------------------|
|-14-14-14-14-14-14-14-14-14-14-14-14-12-12-12-12----|
|----------------------------------------------------|
|-12-12-12-12-12-12-12-12-12-12-12-12-10-10-10-10----|
|----------------------------------------------------|

Verse 1
Guitar 1 & 2
|-------------------------------------------------|
|-------------------------------------------------|
|-------------------------------------------------|
|-------------------------------------------------|
|----------8-------------------5555---------------|
|-0--3--5-----8~----3333335555--------------------|

|-------------------------------------------------|
|-------------------------------------------------|
|-------------------------------------------------|
|-------------------------------------------------|
|----------8--------------------------------------|
|-0--3--5-----8~----33333355551111----------------|

Breakdown
Guitar 1 & 2
you can figure out the rhythm..
|---| |---| |---| |---|
|---| |---| |---| |---|
|---| |---| |---| |---|
|-0-| |-0-| |-0-| |---|
|-0-| |-0-| |-0-| |---|
|-1-| |-0-| |-1-| |-0-|

Chorus 2
Guitar 1 & 2
|---------------------------------------------------------|
|---------------------------------------------------------|
|---------------------------------------------------------|
|-000000000--000000-88888888-555555555-7777777--55555-----|
|-000000000--000000-88888888-555555555-7777777--55555-----|
|-000000000--000000-88888888-555555555-7777777--55555-----|

Verse 2
Guitar 1
|-----|
|-----|
|-----|
|--0~-|
|--0~-|
|--0~-|

Guitar 2
|-------------------------------------|
|-------------------------------------|
|-------------------------------------|
|-------------------------------------|
|-------------------------------------|
|-0000-00-000000000000-00-11111444----|

|-------------------------------------|
|-------------------------------------|
|-------------------------------------|
|-------------------------------------|
|---------------------------44441111--|
|-0000-00-000000000000-00-------------|

|-------------------------------------|
|-------------------------------------|
|-------------------------------------|
|-------------------------------------|
|-------------------------------------|
|-0000-00-000000000000-00-11111444----|

|-------------------------------------|
|-------------------------------------|
|-------------------------------------|
|-------------------------------------|
|-------------------------------------|
|-0000-00-000000000000-00-01401401----|

Breakdown
Guitar 1 & 2
|----------------------------------------------------------------|
|----------------------------------------------------------------|
|----------------------------------------------------------------|
|-0---0---0-0-0----0--0---0-0-0--0-0-0---0---0---0-0-0---0---0---|
|-0---0---0-0-0----0--0---0-0-0--0-0-0---0---0---0-0-0---0---0---|
|-1---1---1-1-1----1--1---1-1-1--1-1-1---1---1---1-1-1---1---1---|

|----------------------------------------------------------------|
|----------------------------------------------------------------|
|----------------------------------------------------------------|
|----------------------------------------------------------------|
|----------------------------------------------------------------|
|-0----0----0----0------0---0----0----0----0----0-----0---0------|

|----------------------------------------------------------------|
|----------------------------------------------------------------|
|----------------------------------------------------------------|
|-0---0---0-0-0----0--0---0-0-0--0-0-0---0---0---0-0-0---0---0---|
|-0---0---0-0-0----0--0---0-0-0--0-0-0---0---0---0-0-0---0---0---|
|-1---1---1-1-1----1--1---1-1-1--1-1-1---1---1---1-1-1---1---1---|

|----------------------------------------------------------------|
|----------------------------------------------------------------|
|----------------------------------------------------------------|
|-0----0----0----0------0---0----0----0----0----0-----0---0------|
|-0----0----0----0------0---0----0----0----0----0-----0---0------|
|-0----0----0----0------0---0----0----0----0----0-----0---0------|