Misc. Unsigned Bands - Icarus The Owl - My Grey Shun Text Guitar Tab

Learn the song with the online tablature player
                             My Grey Shun - Icarus The Owl

Intro

      S S  S S S S S  S S  S S S S
D||----------------------------6-8-|
A||--------------------------------|
F||--10-0-12-2-3-5-7-12-0-10-0-----|
C||--------------------------------|
G||--------------------------------|
C||--------------------------------|

   S S  S S S S S  S S  S S S S
----------------------------6-8-|
--------------------------------|
--10-0-12-2-3-5-7-12-0-10-0-----|
--------------------------------|
--------------------------------|
--------------------------------|

   S S  S S S S S  S S  S S S S
----------------------------6-8-|
--------------------------------|
--10-0-12-2-3-5-7-12-0-10-0-----|
--------------------------------|
--------------------------------|
--------------------------------|

   S S  S S S S S  S S  S S S S
----------------------------6-8-|
--------------------------------|
--10-0-12-2-3-5-7-12-0-10-0-----|
--------------------------------|
--------------------------------|
--------------------------------|

   S S  S S S S S  S S  S S S S
----------------------------6-8-|
--------------------------------|
--10-0-12-2-3-5-7-12-0-10-0-----|
--------------------------------|
--------------------------------|
--------------------------------|

   S S  S S S S S  S S  S S S S
----------------------------6-8-|
--------------------------------|
--10-0-12-2-3-5-7-12-0-10-0-----|
--------------------------------|
--------------------------------|
--------------------------------|

   S S  S S S S S  S S  S S S S
----------------------------6-8-|
--------------------------------|
--10-0-12-2-3-5-7-12-0-10-0-----|
--------------------------------|
--------------------------------|
--------------------------------|

   S S  S S S S S  S S  S S S S
----------------------------6-8-|
--------------------------------|
--10-0-12-2-3-5-7-12-0-10-0-----|
--------------------------------|
--------------------------------|
--------------------------------|

   S S  S S S S S  S S  S S S S
----------------------------6-8-|
--------------------------------|
--10-0-12-2-3-5-7-12-0-10-0-----|
--------------------------------|
--------------------------------|
--------------------------------|

   S S  S S S S S  S S  S S S S
----------------------------6-8-|
--------------------------------|
--10-0-12-2-3-5-7-12-0-10-0-----|
--------------------------------|
--------------------------------|
--------------------------------|

   S S  S S S S S  S S  S S S S
----------------------------6-8-|
--------------------------------|
--10-0-12-2-3-5-7-12-0-10-0-----|
--------------------------------|
--------------------------------|
--------------------------------|

   S S  S S S S S  S S  S S S S
----------------------------6-8-|
--------------------------------|
--10-0-12-2-3-5-7-12-0-10-0-----|
--------------------------------|
--------------------------------|
--------------------------------|

   S S  S S S S S  S S  S S S S
----------------------------6-8-|
--------------------------------|
--10-0-12-2-3-5-7-12-0-10-0-----|
--------------------------------|
--------------------------------|
--------------------------------|

   S S  S S S S S  S S  S S S S
----------------------------6-8-|
--------------------------------|
--10-0-12-2-3-5-7-12-0-10-0-----|
--------------------------------|
--------------------------------|
--------------------------------|

   S S  S S S S S  S S  S S S S
----------------------------6-8-|
--------------------------------|
--10-0-12-2-3-5-7-12-0-10-0-----|
--------------------------------|
--------------------------------|
--------------------------------|

   S S  S S S S S  S S  S S S S
----------------------------6-8-|
--------------------------------|
--10-0-12-2-3-5-7-12-0-10-0-----|
--------------------------------|
--------------------------------|
--------------------------------|

   S S  S S S S S  S S  S S S S
----------------------------6-8-|
--------------------------------|
--10-0-12-2-3-5-7-12-0-10-0-----|
--------------------------------|
--------------------------------|
--------------------------------|

   S S  S S S S S  S S  S S S S
----------------------------6-8-|
--------------------------------|
--10-0-12-2-3-5-7-12-0-10-0-----|
--------------------------------|
--------------------------------|
--------------------------------|

   S S  S S S S S  S S  S S S S
----------------------------6-8-|
--------------------------------|
--10-0-12-2-3-5-7-12-0-10-0-----|
--------------------------------|
--------------------------------|
--------------------------------|

   S S  S S S S S  S S  S S S S
----------------------------6-8-|
--------------------------------|
--10-0-12-2-3-5-7-12-0-10-0-----|
--------------------------------|
--------------------------------|
--------------------------------|

Verse

   S  S  S S S S  E   E   S  S  S
-------------------------13-------|
-----------------11---------13----|
---------------------12--------15-|
--10-10-10-8-8-8------------------|
----------------------------------|
----------------------------------|

   S  S  S  S  S  S  S  S  S  S  S  S S
----------------------------------------|
--10-10-10-11-11-11---------------------|
--------------------10-10---------------|
--------------------------12-12-10-12-0-|
----------------------------------------|
----------------------------------------|

   S  S  S S S S  E   E   S  S  S
-------------------------13-------|
-----------------11---------13----|
---------------------12--------15-|
--10-10-10-8-8-8------------------|
----------------------------------|
----------------------------------|

   S  S  S  S  S  S  S  S  S  S  S  S S
----------------------------------------|
--10-10-10-11-11-11---------------------|
--------------------10-10---------------|
--------------------------12-12-10-12-0-|
----------------------------------------|
----------------------------------------|

   S  S  S S S S  E   E   S  S  S
-------------------------13-------|
-----------------11---------13----|
---------------------12--------15-|
--10-10-10-8-8-8------------------|
----------------------------------|
----------------------------------|

   S  S  S  S  S  S  S  S  S  S  S  S S
----------------------------------------|
--10-10-10-11-11-11---------------------|
--------------------10-10---------------|
--------------------------12-12-10-12-0-|
----------------------------------------|
----------------------------------------|

   S  S  S S S S  E   E   S  S  S
-------------------------13-------|
-----------------11---------13----|
---------------------12--------15-|
--10-10-10-8-8-8------------------|
----------------------------------|
----------------------------------|

   S  S  S  S  S  S  S  S  S  S  S  S S  S  S
----------------------------------------------|
--10-10-10-11-11-11---------------------------|
--------------------10-10---------------------|
--------------------------12-12-10-12-0-10-12-|
----------------------------------------------|
----------------------------------------------|

Pre-Chorus

  E    E   S  E   E   E  S E  E
-------------10------------------|
---------------------------6-----|
----------10-----10--------------|
---------------------10--8----5--|
--8s--10-------------------------|
---------------------------------|

  E    E   S  E   E   E  S E  E
-------------10------------------|
---------------------------6-----|
----------10-----10--------------|
---------------------10--8----5--|
--8s--10-------------------------|
---------------------------------|

   S S S S  S  S  S E   S S S S  S  S  S E
--------------------------------------------|
--------------10-------------------10-------|
-----------------10-3-----------------10-3--|
--10-0-3-5-10----------10-0-3-5-10----------|
--------------------------------------------|
--------------------------------------------|

   S S S S  S  S  S E   S S S S  S  S  S E
--------------------------------------------|
--------------10-------------------10-------|
-----------------10-3-----------------10-3--|
--10-0-3-5-10----------10-0-3-5-10----------|
--------------------------------------------|
--------------------------------------------|

  E    E   S  E   E   E  S E  E
-------------10------------------|
---------------------------6-----|
----------10-----10--------------|
---------------------10--8----5--|
--8s--10-------------------------|
---------------------------------|

  E    E   S  E   E   E  S E  E
-------------10------------------|
---------------------------6-----|
----------10-----10--------------|
---------------------10--8----5--|
--8s--10-------------------------|
---------------------------------|

   S S S S  S  S  S E   S S S S  S  S  S E
--------------------------------------------|
--------------10-------------------10-------|
-----------------10-3-----------------10-3--|
--10-0-3-5-10----------10-0-3-5-10----------|
--------------------------------------------|
--------------------------------------------|

   S S S S  S  S  S E   S S S S  S  S  S E
--------------------------------------------|
--------------10-------------------10-------|
-----------------10-3-----------------10-3--|
--10-0-3-5-10----------10-0-3-5-10----------|
--------------------------------------------|
--------------------------------------------|

Chorus

   S  S  S  S  S  S  S   S   S  S  S  S  S S  S  S
--15-13-------------17s-18s-17-13------------------|
--------15-11---------------------18-15-11-8-11-13-|
--------------15-12--------------------------------|
---------------------------------------------------|
---------------------------------------------------|
---------------------------------------------------|

   S  S  S  S  S  S  S   S   S  S  S  S  S S  S  S
--15-13-------------17s-18s-17-13------------------|
--------15-11---------------------18-15-11-8-11-13-|
--------------15-12--------------------------------|
---------------------------------------------------|
---------------------------------------------------|
---------------------------------------------------|

   E   E   E  E   E   E  E   E   E   E   E  E   E   E  E

------10----------------------------10------------------
--15-13-------------17s-18s-17-13------------------|
--------15-11---------------------18-15-11-8-11-13-|
--------------15-12--------------------------------|
---------------------------------------------------|
---------------------------------------------------|
---------------------------------------------------|

   S  S  S  S  S  S  S   S   S  S  S  S  S S  S  S
--15-13-------------17s-18s-17-13------------------|
--------15-11---------------------18-15-11-8-11-13-|
--------------15-12--------------------------------|
---------------------------------------------------|
---------------------------------------------------|
---------------------------------------------------|

  S S H        S S Q       S S H        S S Q
--3------------1--------|--3------------1--------|
----3------------1------|----3------------1------|
------3------------0----|------3------------0----|
------------------------|------------------------|
------------------------|------------------------|
------------------------|------------------------|

Intro

   S S  S S S S S  S S  S S S S
----------------------------6-8-|
--------------------------------|
--10-0-12-2-3-5-7-12-0-10-0-----|
--------------------------------|
--------------------------------|
--------------------------------|

   S S  S S S S S  S S  S S S S
----------------------------6-8-|
--------------------------------|
--10-0-12-2-3-5-7-12-0-10-0-----|
--------------------------------|
--------------------------------|
--------------------------------|

   S S  S S S S S  S S  S S S S
----------------------------6-8-|
--------------------------------|
--10-0-12-2-3-5-7-12-0-10-0-----|
--------------------------------|
--------------------------------|
--------------------------------|

   S S  S S S S S  S S  S S S S
----------------------------6-8-|
--------------------------------|
--10-0-12-2-3-5-7-12-0-10-0-----|
--------------------------------|
--------------------------------|
--------------------------------|

   S S  S S S S S  S S  S S S S
----------------------------6-8-|
--------------------------------|
--10-0-12-2-3-5-7-12-0-10-0-----|
--------------------------------|
--------------------------------|
--------------------------------|

   S S  S S S S S  S S  S S S S
----------------------------6-8-|
--------------------------------|
--10-0-12-2-3-5-7-12-0-10-0-----|
--------------------------------|
--------------------------------|
--------------------------------|

   S S  S S S S S  S S  S S S S
----------------------------6-8-|
--------------------------------|
--10-0-12-2-3-5-7-12-0-10-0-----|
--------------------------------|
--------------------------------|
--------------------------------|

   S S  S S S S S  S S  S S S S
----------------------------6-8-|
--------------------------------|
--10-0-12-2-3-5-7-12-0-10-0-----|
--------------------------------|
--------------------------------|
--------------------------------|

Verse

   S  S  S S S S  E   E   S  S  S
-------------------------13-------|
-----------------11---------13----|
---------------------12--------15-|
--10-10-10-8-8-8------------------|
----------------------------------|
----------------------------------|

   S  S  S  S  S  S  S  S  S  S  S  S S
----------------------------------------|
--10-10-10-11-11-11---------------------|
--------------------10-10---------------|
--------------------------12-12-10-12-0-|
----------------------------------------|
----------------------------------------|

   S  S  S S S S  E   E   S  S  S
-------------------------13-------|
-----------------11---------13----|
---------------------12--------15-|
--10-10-10-8-8-8------------------|
----------------------------------|
----------------------------------|

   S  S  S  S  S  S  S  S  S  S  S  S S
----------------------------------------|
--10-10-10-11-11-11---------------------|
--------------------10-10---------------|
--------------------------12-12-10-12-0-|
----------------------------------------|
----------------------------------------|

   S  S  S S S S  E   E   S  S  S
-------------------------13-------|
-----------------11---------13----|
---------------------12--------15-|
--10-10-10-8-8-8------------------|
----------------------------------|
----------------------------------|

   S  S  S  S  S  S  S  S  S  S  S  S S
----------------------------------------|
--10-10-10-11-11-11---------------------|
--------------------10-10---------------|
--------------------------12-12-10-12-0-|
----------------------------------------|
----------------------------------------|

   S  S  S S S S  E   E   S  S  S
-------------------------13-------|
-----------------11---------13----|
---------------------12--------15-|
--10-10-10-8-8-8------------------|
----------------------------------|
----------------------------------|

   S  S  S  S  S  S  S  S  S  S  S  S S  S  S
----------------------------------------------|
--10-10-10-11-11-11---------------------------|
--------------------10-10---------------------|
--------------------------12-12-10-12-0-10-12-|
----------------------------------------------|
----------------------------------------------|

Pre-Chorus

  E    E   S  E   E   E  S E  E
-------------10------------------|
---------------------------6-----|
----------10-----10--------------|
---------------------10--8----5--|
--8s--10-------------------------|
---------------------------------|

  E    E   S  E   E   E  S E  E
-------------10------------------|
---------------------------6-----|
----------10-----10--------------|
---------------------10--8----5--|
--8s--10-------------------------|
---------------------------------|

   S S S S  S  S  S E   S S S S  S  S  S E
--------------------------------------------|
--------------10-------------------10-------|
-----------------10-3-----------------10-3--|
--10-0-3-5-10----------10-0-3-5-10----------|
--------------------------------------------|
--------------------------------------------|

   S S S S  S  S  S E   S S S S  S  S  S E
--------------------------------------------|
--------------10-------------------10-------|
-----------------10-3-----------------10-3--|
--10-0-3-5-10----------10-0-3-5-10----------|
--------------------------------------------|
--------------------------------------------|

  E    E   S  E   E   E  S E  E
-------------10------------------|
---------------------------6-----|
----------10-----10--------------|
---------------------10--8----5--|
--8s--10-------------------------|
---------------------------------|

  E    E   S  E   E   E  S E  E
-------------10------------------|
---------------------------6-----|
----------10-----10--------------|
---------------------10--8----5--|
--8s--10-------------------------|
---------------------------------|

   S S S S  S  S  S E   S S S S  S  S  S E
--------------------------------------------|
--------------10-------------------10-------|
-----------------10-3-----------------10-3--|
--10-0-3-5-10----------10-0-3-5-10----------|
--------------------------------------------|
--------------------------------------------|

   S S S S  S  S  S E   S S S S  S  S  S E
--------------------------------------------|
--------------10-------------------10-------|
-----------------10-3-----------------10-3--|
--10-0-3-5-10----------10-0-3-5-10----------|
--------------------------------------------|
--------------------------------------------|

Chorus
   S  S  S  S  S  S  S   S   S  S  S  S  S S  S  S
--15-13-------------17s-18s-17-13------------------|
--------15-11---------------------18-15-11-8-11-13-|
--------------15-12--------------------------------|
---------------------------------------------------|
---------------------------------------------------|
---------------------------------------------------|

   S  S  S  S  S  S  S   S   S  S  S  S  S S  S  S
--15-13-------------17s-18s-17-13------------------|
--------15-11---------------------18-15-11-8-11-13-|
--------------15-12--------------------------------|
---------------------------------------------------|
---------------------------------------------------|
---------------------------------------------------|

   E   E   E  E   E   E  E   E   E   E   E  E   E   E  E

------10----------------------------10------------------
--15-13-------------17s-18s-17-13------------------|
--------15-11---------------------18-15-11-8-11-13-|
--------------15-12--------------------------------|
---------------------------------------------------|
---------------------------------------------------|
---------------------------------------------------|

   S  S  S  S  S  S  S   S   S  S  S  S  S S  S  S
--15-13-------------17s-18s-17-13------------------|
--------15-11---------------------18-15-11-8-11-13-|
--------------15-12--------------------------------|
---------------------------------------------------|
---------------------------------------------------|
---------------------------------------------------|

  S S H        S S Q       S S H        S S Q
--3------------1--------|--3------------1--------|
----3------------1------|----3------------1------|
------3------------0----|------3------------0----|
------------------------|------------------------|
------------------------|------------------------|
------------------------|------------------------|

Bridge
  Q    H.           Q    H
----------------------------------|
----------------------------------|
--7----0------------7----5--------|
----------------------------------|
----------------------------------|
----------------------------------|

  Q    H.           Q    H
----------------------------------|
----------------------------------|
--7----0------------7----5--------|
----------------------------------|
----------------------------------|
----------------------------------|

  Q    H        Q     H        Q
------------------------------------|
------------------------------------|
---------------------10-------------|
--5----7--------8--------------8----|
------------------------------------|
------------------------------------|

  Q    H        Q     H        Q
------------------------------------|
------------------------------------|
---------------------10-------------|
--5----7--------8--------------8----|
------------------------------------|
------------------------------------|

  Q    H.           Q    H
----------------------------------|
----------------------------------|
--7----0------------7----5--------|
----------------------------------|
----------------------------------|
----------------------------------|

  Q    H.           Q    H
----------------------------------|
----------------------------------|
--7----0------------7----5--------|
----------------------------------|
----------------------------------|
----------------------------------|

  Q    H        Q     H        Q
------------------------------------|
------------------------------------|
---------------------10-------------|
--5----7--------8--------------8----|
------------------------------------|
------------------------------------|

  Q    H        Q     H        Q
------------------------------------|
------------------------------------|
---------------------10-------------|
--5----7--------8--------------8----|
------------------------------------|
------------------------------------|

Intro

   S S  S S S S S  S S  S S S S
----------------------------6-8-|
--------------------------------|
--10-0-12-2-3-5-7-12-0-10-0-----|
--------------------------------|
--------------------------------|
--------------------------------|

   S S  S S S S S  S S  S S S S
----------------------------6-8-|
--------------------------------|
--10-0-12-2-3-5-7-12-0-10-0-----|
--------------------------------|
--------------------------------|
--------------------------------|

   S S  S S S S S  S S  S S S S
----------------------------6-8-|
--------------------------------|
--10-0-12-2-3-5-7-12-0-10-0-----|
--------------------------------|
--------------------------------|
--------------------------------|

   S S  S S S S S  S S  S S S E.
----------------------------6-8---|
----------------------------------|
--10-0-12-2-3-5-7-12-0-10-0-------|
----------------------------------|
----------------------------------|
----------------------------------|

Chorus

   S  S  S  S  S  S  S   S   S  S  S  S  S S  S  S
--15-13-------------17s-18s-17-13------------------|
--------15-11---------------------18-15-11-8-11-13-|
--------------15-12--------------------------------|
---------------------------------------------------|
---------------------------------------------------|
---------------------------------------------------|

   S  S  S  S  S  S  S   S   S  S  S  S  S S  S  S
--15-13-------------17s-18s-17-13------------------|
--------15-11---------------------18-15-11-8-11-13-|
--------------15-12--------------------------------|
---------------------------------------------------|
---------------------------------------------------|
---------------------------------------------------|

   E   E   E  E   E   E  E   E   E   E   E  E   E   E  E

------10----------------------------10------------------
--15-13-------------17-18-18-13------------------|
--------15-11-------------------18-15-11-8-11-13-|
--------------15-12------------------------------|
-------------------------------------------------|
-------------------------------------------------|
-------------------------------------------------|

   S  S  S  S  S  S  S  S  S  S  S  S  S S  S  S
--15-13-------------17-18-18-13------------------|
--------15-11-------------------18-15-11-8-11-13-|
--------------15-12------------------------------|
-------------------------------------------------|
-------------------------------------------------|
-------------------------------------------------|

   E   E   E  E   E   E  E   E   E   E   E  E   E   E  E

------10----------------------------10------------------
. - note dotted
|-n-|  - n-tuplets

L - tied note
x - dead note
g - grace note
(n) - ghost note
> - accentuded note
NH - natural harmonic
AH - artificial harmonic
TH - tapped harmonic
SH - semi harmonic
PH - pitch harmonic
h - hammer on
p - pull off
b - bend
br - bendRelease
pb - preBend
pbr - preBendRelease
brb - bendReleaseBend
\n/ - tremolo bar dip
\n - tremolo bar dive
-/n - tremolo bar Release up
/n\ - tremolo bar inverted dip
/n - tremolo bar return
-\n - tremolo bar Release down
S - shift slide
s - legato slide
/ -  slide into from below or out of upwards
\ -  slide into from above or out of downwards
~ - vibrato
W - wide vibrato
tr - trill
TP - tremolo picking
T - tapping
S - slap
P - pop
< - fade in
^ - brush up
v - brush down