Misc. Unsigned Bands - Il Postino - The Postman Text Guitar Tab

Learn the song with the online tablature player
e|-0-3-0-3~--0-5-0-3~-3-5-3-3~-1-0-1/8~-1-0--0-1-0-0-------3------------------|
B|---------------------------------------------------3-2-3---0-3-1--1-5-5/8---|
G|----------------------------------------------------------------------------|
D|----------------------------------------------------------------------------|
A|----------------------------------------------------------------------------|
E|----------------------------------------------------------------------------|

e|-------------------------0-3-0-3~--0-5-0-3~-3-5-3-5-3-1-0-------------------|
B|-13-12-13--10-10/12/8-8~---------------------------------3-5/6~-6-8-6-------|
G|----------------------------------------------------------------------------|
D|----------------------------------------------------------------------------|
A|----------------------------------------------------------------------------|
E|----------------------------------------------------------------------------|

e|---------------------------------------0------------------------------------|
B|--5-0-5-0-5~-5h6p5-3-0-3-0-3--3-1-0----1------------------------------------|
G|---------------------------------------0------------------------------------|
D|---------------------------------------2------------------------------------|
A|---------------------------------------3------------------------------------|
E|----------------------------------------------------------------------------|

| /  slide up
| \  slide down
| h  hammer-on
| p  pull-off
| ~  vibrato
| +  harmonic
| x  Mute note