Misc. Unsigned Bands - Illicit Roses - Feed My Addiction Text Guitar Tab

Learn the song with the online tablature player
-2-------------|
-2-------------|
-2-3-----------|
-2--5----------| }repeat 10 times
-2--5----------|
-2-------------|
-2-------------|

---------------------------|
---------------------------|
---------------------------|
-5----4----2--4-----15-----|
-5----4----2--4-----15-----|
3----2---0---2---10--------|

This is the very basic structure of our new song go no oiur band website
ill post the update some time in a month or so