Misc. Unsigned Bands - In Company Of Spiders - Katie The Bourbon Lady Text Guitar Tab

Learn song with the online tabulature player
-------------------------------------------------------------------------------
             KATIE THE BOURBON LADY - In Company of Spiders
-------------------------------------------------------------------------------
Tabbed by: leakeg
Email: leakeg02@student.uwa.edu.au

Tuning: standard

Verse:

e|--------------------------------------------------|
B|--------------------------------------------------|
G|--------------------------------------------------|
D|--------------------4-----------6-----------4-----|
A|--------4-----2--2-----2--4--4-----4--2--2-----2--|
E|--2--2-----2--------------------------------------|

Chorus:

e|---------------------------------------------------------------|
B|---------------------------------------------------------------|
G|----------------4-4-4-4-4-4-4-4-6-6-6-6-6-6-6-6-6-6-6-6-6-6-6-6|
D|4-4-4-4-4-4-4-4-4-4-4-4-4-4-4-4-6-6-6-6-6-6-6-6-6-6-6-6-6-6-6-6|
A|4-4-4-4-4-4-4-4-2-2-2-2-2-2-2-2-4-4-4-4-4-4-4-4-4-4-4-4-4-4-4-4|
E|2-2-2-2-2-2-2-2------------------------------------------------|