Misc. Unsigned Bands - In Love And Hate - 300 Text Guitar Tab

Learn song with the online tabulature player
Very, very simple, the intro:

e|--------------------|--------------------|---3--3--3----3--3--|---3--3--3----3--3--|
B|---3--3--3----3--3--|---3--3--3----3--3--|---3--3--3----3--3--|---3--3--3----3--3--|
G|--------------------|--------------------|---0--0--0----0--0--|---0--0--0----0--0--|
D|--------------------|--------------------|--------------------|--------------------|
A|--------------------|--------------------|--------------------|--------------------|

e|---3--3--3----3--3--|---3--3--3----3--3--|---3--3--3----3--3--|---3--3--3----3--|
B|---3--3--3----3--3--|---3--3--3----3--3--|---3--3--3----3--3--|---3--3--3----3--|
G|---0--0--0----0--0--|---0--0--0----0--0--|---0--0--0----0--0--|---0--0--0----0--| 
D|---0--0--0----0--0--|---0--0--0----0--0--|---0--0--0----0--0--|---0--0--0----2--|
A|--------------------|--------------------|---x--x--x----x--x--|---x--x--x----3--|
E|--------------------|--------------------|---3--3--3----3--3--|---3--3--3-------|(Hold)



And the riff for the entire song:

e|---3-3-3-3-3--3--3--|
B|---3-3-3-3-3--3--3--|
G|---0-0-0-0-0--0--0--|
D|---0-0-0-0-0--2--0--|
A|---x-x-x-x-x--3--x--|
E|---3-3-3-3-3-----3--|

And that's it!

http://www.myspace.com/inloveandhatessuperawesomerockfestyo