Misc. Unsigned Bands - In The Eyes Of A Mistress - I Got It From A Friend Who Also Happens To Wear Bitchin Ass Pants Text Guitar Tab

Learn the song with the online tablature player
I GOT IT FROM A FRIEND, WHO ALSO HAPPENS TO WEAR BITCHIN' ASS PANTS
                          In The Eyes Of a Mistress

Lead x2
D|--------------------------------------------------------------------------|
A|--------------------------------------------------------------------------|
F|--------------------------------------------------------------------------|
C|-000x-0x-0x-000x-000x-000x-000x-000x-000x-3x-3x-3x-3x--2x-2x-2x-2x--------|
G|-000x-0x-0x-000x-000x-000x-000x-000x-000x-3x-3x-3x-3x--2x-2x-2x-2x--------|
C|-000x-0x-0x-000x-000x-000x-000x-000x-000x-3x-3x-3x-3x--2x-2x-2x-2x--------|

D|--------------------------------------------------------------------------|
A|--------------------------------------------------------------------------|
F|--------------------------------------------------------------------------|
C|-000x-0x-0x-000x-000x-000x-000x-000x-000x-3x-3x-3x-3--2x-2x-2x-2----------|
G|-000x-0x-0x-000x-000x-000x-000x-000x-000x-3x-3x-3x-3--2x-2x-2x-2----------|
C|-000x-0x-0x-000x-000x-000x-000x-000x-000x-3x-3x-3x-3--2x-2x-2x-2----------|

D|--------------------------------------------------------------------------|
A|--------------------------------------------------------------------------|
F|--------------------------------------------------------------------------|
C|-000x-0x-0x-000x-000x-000x-000x-000x-000x-3-3x-3x-3--2-2x-2x-2--0x--------|
G|-000x-0x-0x-000x-000x-000x-000x-000x-000x-3-3x-3x-3--2-2x-2x-2--0x--------|
C|-000x-0x-0x-000x-000x-000x-000x-000x-000x-3-3x-3x-3--2-2x-2x-2--0x--------|

Rhythm  x2
D|--------------------------------------------------------------------------|
A|--------------------------------------------------------------------------|
F|--------------------------------------------------------------------------|
C|-000x-------000x-000x-000x-000x-000x-000x-3x-3x-3x-3x--2x-2x-2x-2x--------|
G|-000x-------000x-000x-000x-000x-000x-000x-3x-3x-3x-3x--2x-2x-2x-2x--------|
C|-000x-------000x-000x-000x-000x-000x-000x-3x-3x-3x-3x--2x-2x-2x-2x--------|

D|--------------------------------------------------------------------------|
A|--------------------------------------------------------------------------|
F|--------------------------------------------------------------------------|
C|-000x-------000x-000x-000x-000x-000x-000x-3x-3x-3x-3--2x-2x-2x-2----------|
G|-000x-------000x-000x-000x-000x-000x-000x-3x-3x-3x-3--2x-2x-2x-2----------|
C|-000x-------000x-000x-000x-000x-000x-000x-3x-3x-3x-3--2x-2x-2x-2----------|

D|--------------------------------------------------------------------------|
A|--------------------------------------------------------------------------|
F|--------------------------------------------------------------------------|
C|-000x-------000x-000x-000x-000x-000x-000x-3-3x-3x-3--2-2x-2x-2--0x--------|
G|-000x-------000x-000x-000x-000x-000x-000x-3-3x-3x-3--2-2x-2x-2--0x--------|
C|-000x-------000x-000x-000x-000x-000x-000x-3-3x-3x-3--2-2x-2x-2--0x--------|