Misc. Unsigned Bands - Incomplete - Make Yourself Comfortable Text Guitar Tab

Learn song with the online tabulature player
MAKE YOURSELF COMFORTABLE
INCOMPLETE

These tabs are pretty basic.  They're just the chords, so you'll have to watch/listen to
video to fill in the blanks.  But it's not like it's a complicated song, so it should
all right.  It's just a lot of strumming down/up, hitting strings open, with some palm
in between.  Just play sloppy, and it should all start to flow.

Capo 3rd Fret
Tabs relative to capo


e|--0-----0-----0-----0---|---0-----0-----0-----0--|
B|--0-----3-----5--/--8---|---0-----3-----5--\--3--|
G|--4-----0-----0-----0---|---4-----0-----0-----0--|
D|--5-----4-----4--/--7---|---5-----4-----4--\--2--|
A|--5-----5-----5--/--8---|---5-----5-----5--\--3--|
E|--3-----0-----0-----x---|---3-----0-----0-----x--|

Make yourself comfortable, stay all night
Never get up, I'll be here for a while


e|---1-----0-----0-----0-----1-----0-----0---|
B|---1-----1-----0-----0-----1-----1-----3---|
G|---2-----0-----0-----0-----2-----0-----0---|
D|---3-----2-----2-----0-----3-----2-----2---|
A|---3-----3-----3-----0-----3-----3-----3---|
E|---1-----------------0-----1---------------|

Don't leave now, it's way too early
Feels like we just got here, but I know you're not as...

e|---0-----0-----0-----0---|---0-----0-----0-----0---|
B|---0-----3-----1-----3---|---0-----3-----1-----1---|
G|---2-----2-----0-----0---|---2-----2-----0-----0---|
D|---2-----2-----3-----5---|---2-----2-----3-----3---|
A|---0-----0-----3-----5---|---0-----0-----3-----3---|
E|---------------------x---|-------------------------|

...lonely.


e|--0-----0-----0-----0---|---0-----0-----0-----0--|
B|--0-----3-----5--/--8---|---0-----3-----5--\--3--|
G|--4-----0-----0-----0---|---4-----0-----0-----0--|
D|--5-----4-----4--/--7---|---5-----4-----4--\--2--|
A|--5-----5-----5--/--8---|---5-----5-----5--\--3--|
E|--3-----0-----0-----x---|---3-----0-----0-----x--|

Make yourself comfortable, stay all night
Never get up, I'll be here for a while


| /  slide up
| \  slide down
| h  hammer-on
| p  pull-off
| ~  vibrato
| +  harmonic
| x  Mute note