Misc. Unsigned Bands - Initiative - The Way I Feel Text Guitar Tab

Learn song with the online tabulature player
Alright Guys here it goes then :D This is my bands song and i 
particuarly like the intro so i thought id share it :D

Capo 2nd Fret

e||-------------------------------------|
B||----2--2--2--2--2----2--2--2--2--2---|
G||---2--2--2--2--2-2--2--2--2--2--2-2--|
D||--0--0--0--0--0----2--2--2--2--2-----|
A||-------------------------------------|
E||-------------------------------------|

e||--------------------------------------|
B||----2--2-----2--2-----2--2--2--2--2---|
G||---2--2--2--2--2--2--2--2--2--2--2-2--|
D||--4--4--4--2--2--2--0--0--0--0--0-----|
A||--------------------------------------|
E||--------------------------------------|

Welcome to use it as you wish;) Whitey1994@msn.com