Misc. Unsigned Bands - Inked In Blood - Lest I Sleep The Sleep Of Death Text Guitar Tab

Learn the song with the online tablature player
Intro
-------------------------------------------------------------------------|
-------------------------------------------------------------------------|
---7~----------------7~-------------7~----------------7~------------(3x)-|
---x--0-000-0-00-0-0-x--0-0-0-0-0-0-x--0-000-0-00-0-0-x--0-0-0-0-0-0-----|
---5~-0-000-0-00-0-0-5~-0-0-0-0-0-0-5~-0-000-0-00-0-0-5~-0-0-0-0-0-0-----|
-0----0-000-0-00-0-0----0-0-0-0-0-0----0-000-0-00-0-0----0-0-0-0-0-0-----|

3rd time end on...
-------------------------------------------------------------------------|
-------------------------------------------------------------------------|
-------------------------------------------------------------------------|
-0-0-0-0-0-0-000--0-0-0-0-0-0-0-0-000--0-0-0-0-0-0-0-0-0-000-0-0-0-00000-|
-0-0-0-0-0-0-000--0-0-0-0-0-0-0-0-000--0-0-0-0-0-0-0-0-0-000-0-0-0-00000-|
-0-0-0-0-0-0-000--0-0-0-0-0-0-0-0-000--0-0-0-0-0-0-0-0-0-000-0-0-0-00000-|

---------------------|
---------------------|
---------------------|
-0-0-00-00000--0-0-0-|
-0-0-00-00000--0-0-0-|
-0-0-00-00000--0-0-0-|

Verse
Repeat twice)
------------------------------------------------------------------|
------------------------------------------------------------------|
--3-3-3-3-3-3-3-3-7-7-7-7-7-77---7-7-7-7-3-3-3-3-7-7-7-7-5-7-8-5--|
------------------------------------------------------------------|
------------------------------------------------------------------|
-0-0-0-0-0-0-0-0-0-0-0-0-0-0----0-0-0-0-0-0-0-0-0-0-0-0-0-0-0-0---|

--------------------------------------------|
----------------------------6-4-3-----------|
--7-7-7-7-3-3-3-3-7-7-7-7---------5-3-2-----|
----------------------------------------3---|
--------------------------------------------|
-0-0-0-0-0-0-0-0-0-0-0-0--------------------|

Fill (4x)
---------------------------|
------------6-4-3----------|
------------------5-3-2----|
-5555-5-5-5-------------3--|
-5555-5-5-5----------------|
-5555-5-5-5----------------|
 .... . . .

Breakdown
kinda) (3x)
----------------------------|
------------------------6---|
--------------2-3--5-3----3-|
-5-5555-5-5-5---------------|
-5-5555-5-5-5---------------|
-5-5555-5-5-5-----0----0----|
   ....
Then...
-------------------------|
-------------------------|
-7-7---7~----------------|
-x-x---x--0-000-0-00-0-0-|
-5-5---5~-0-000-0-00-0-0-|
-----0----0-000-0-00-0-0-|

(Breakdown again (3x)

Then...
-----------------------------|
-----------------------------|
-7-7---7~--------------------|
-x-x---x--0-000-0-00-0-0--0~-|
-5-5---5~-0-000-0-00-0-0--0~-|
-----0----0-000-0-00-0-0--0~-|

1st guitar finishes with... (2x)
-------------------------------------|
-------------------------------------|
-------------------------------------|
-5-5-5-55-5-5-5-55-5-5-5-55-5-5-5-55-|
-5-5-5-55-5-5-5-55-5-5-5-55-5-5-5-55-|
-5-5-5-55-5-5-5-55-5-5-5-55-5-5-5-55-|
 . .   .. . .   .. . .   .. . .   ..
The Chant... ok, this part is hard to make out, it has some wierd picking and stuff in
background, but here's the base notes for the chant and the singing part...
-------------------------------------|
-------------------------------------|
-------------------33333333----------|
-55555555-11111111-33333333-33333333-|
-55555555-11111111-11111111-33333333-|
-55555555-11111111----------33333333-|