Misc. Unsigned Bands - Innerstate - Melodicus Text Guitar Tab

Learn the song with the online tablature player
Melodicus
                            As Recorded by Innerstate
                    (The 2010 Single of the Album Monoliath)

 Intro

||----------------------------||
||----------------------------||
||----------------------------||
||---------2-3-5-3-2----------||
||---1-2-4-----------5-3------||
||-3---------------------4-~3-||

 Verse I

||------------------------------| x2
||------------------------------|
||-------0-~4-------------------|
||----2--------------------0-~4-|
||-3--------------------2-------|
||-------------------3----------|

|------------------------|------------------------|-----------------------|
|------------------------|------------------------|----------0-----0--3-3-|
|-------0-~4--0--4-------|------------------------|-------0-----0---------|
|----2--------------0--4-|-------0-~4--0--4-------|----2------------------|
|-3----------------------|----2--------------0--4-|-3---------------------|
|------------------------|-3----------------------|-----------------------|

|---------------||
|---------------||
|-------------0-||
|-------0--4----||
|----2----------||
|-3-------------||

 Post-Verse
  Gtr I

||-3---3--3--3---3--3---3--3--3--3--3-|-3---3--3--3---3--3---3--3--3--3--3-|
||-3---3--3--3---3--3---3--3--3--3--3-|-3---3--3--3---3--3---3--3--3--3--3-|
||-0---0--0--0---0--0---0--0--0--0--0-|-0---0--0--0---0--0---0--0--0--0--0-|
||-2---2--2--2---2--2---2--2--2--2--2-|-0---0--0--0---0--0---0--0--0--0--0-|
||-3---3--3--3---3--3---3--3--3--3--3-|-2---2--2--2---2--2---2--2--2--2--2-|
||------------------------------------|-3---3--3--3---3--3---3--3--3--3--3-|

|-3---3--3--3---3--3---3--3--3--3--3-|-3---3--3--3---3--3---3--3--3--3--3-||
|-3---3--3--3---3--3---3--3--3--3--3-|-3---3--3--3---3--3---3--3--3--3--3-||
|-0---0--0--0---0--0---0--0--0--0--0-|-0---0--0--0---0--0---0--0--0--0--0-||
|-2---2--2--2---2--2---2--2--2--2--2-|-0---0--0--0---0--0---0--0--0--0--0-||
|-3---3--3--3---3--3---3--3--3--3--3-|-2---2--2--2---2--2---2--2--2--2--2-||
|------------------------------------|-3---3--3--3---3--3---3--3--3--3--3-||
|
|
| Gtr II
|
||----------------5----------------5-|-----------------------------------|
||-----------------------------------|----------------5----------------5-|
||--------2h4-2h3----------2h4-2h3---|-----------------------------------|
||-2h3-2------------2h3-2------------|--------2h4-2h3----------2h4-2h3---|
||-----------------------------------|-2h3-2------------2h3-2------------|
||-----------------------------------|-----------------------------------|

|----------------5----------------5-|-----------------------------------||
|-----------------------------------|----------------5----------------5-||
|--------2h4-2h3----------2h4-2h3---|-----------------------------------||
|-2h3-2------------2h3-2------------|--------2h4-2h3----------2h4-2h3---||
|-----------------------------------|-2h3-2------------2h3-2------------||
|-----------------------------------|-----------------------------------||

 Verse II

||------------------------------| x2
||------------------------------|
||-------0-~4-------------------|
||----2--------------------0-~4-|
||-3--------------------2-------|
||-------------------3----------|

|------------------------|------------------------|-----------------------|
|------------------------|------------------------|----------0-----0--3-3-|
|-------0-~4--0--4-------|------------------------|-------0-----0---------|
|----2--------------0--4-|-------0-~4--0--4-------|----2------------------|
|-3----------------------|----2--------------0--4-|-3---------------------|
|------------------------|-3----------------------|-----------------------|

|---------------||
|---------------||
|-------------0-||
|-------0--4----||
|----2----------||
|-3-------------||

 Post-Verse
  Gtr I

||-3---3--3--3---3--3---3--3--3--3--3-|-3---3--3--3---3--3---3--3--3--3--3-|
||-3---3--3--3---3--3---3--3--3--3--3-|-3---3--3--3---3--3---3--3--3--3--3-|
||-0---0--0--0---0--0---0--0--0--0--0-|-0---0--0--0---0--0---0--0--0--0--0-|
||-2---2--2--2---2--2---2--2--2--2--2-|-0---0--0--0---0--0---0--0--0--0--0-|
||-3---3--3--3---3--3---3--3--3--3--3-|-2---2--2--2---2--2---2--2--2--2--2-|
||------------------------------------|-3---3--3--3---3--3---3--3--3--3--3-|

|-3---3--3--3---3--3---3--3--3--3--3-|-3---3--3--3---3--3---3--3--3--3--3-||
|-3---3--3--3---3--3---3--3--3--3--3-|-3---3--3--3---3--3---3--3--3--3--3-||
|-0---0--0--0---0--0---0--0--0--0--0-|-0---0--0--0---0--0---0--0--0--0--0-||
|-2---2--2--2---2--2---2--2--2--2--2-|-0---0--0--0---0--0---0--0--0--0--0-||
|-3---3--3--3---3--3---3--3--3--3--3-|-2---2--2--2---2--2---2--2--2--2--2-||
|------------------------------------|-3---3--3--3---3--3---3--3--3--3--3-||
|
|
| Gtr II
|
||-----------------5-----------------5-|---------------------------------|
||-------------------------------------|---------------5---------------5-|
||--------2h42h3-2----------2h42h3-2---|---------------------------------|
||-2h3-2-------------2h3-2-------------|--------2h42h3----------2h42h3---|
||-------------------------------------|-2h3-2-----------2h3-2-----------|
||-------------------------------------|---------------------------------|

|-----------------5-----------------5-|---------------------------------||
|-------------------------------------|---------------5---------------5-||
|--------2h42h3-2----------2h42h3-2---|---------------------------------||
|-2h3-2-------------2h3-2-------------|--------2h42h3----------2h42h3---||
|-------------------------------------|-2h3-2-----------2h3-2-----------||
|-------------------------------------|---------------------------------||

 Bridge

||----------------------------------|
||----------------------------------|
||----------------------------------|
||----------------------------------|
||----------------------------------|
||----------------------------------|