Misc. Unsigned Bands - Insane Rebellion - 75 Text Guitar Tab

Learn the song with the online tablature player
to made it sound more classic rock hit the string under every chord(remember
distortion and this is an option)

distortion:put gain up to 6

 E---------------------------------------------------------------------------|
 B---------------------------------------------------------------------------|
 G----7b9---5----------5-------------7p5---------------5---------------------|
 D--------------7-5-7----7-----5--7-------7p5-----5-7-----7------------------|
 A---------------------------5-----------------7-----------------------------|
 E---------------------------------------------------------------------------|

 E--------------------------------------------------------------------------|
 B--------------------------------------------------------------------------|
 G--8-7-8-7-8-7--5--7-----------7---5---------5-----------------------------|
 D------------------------5-7----------7-5-7-----7b-------------------------|
 A---------------------7----------------------------------------------------|
 E--------------------------------------------------------------------------|

 hold last note for 4 seconds and it's done