Misc. Unsigned Bands - Intermidiate - Finger Pickin Fire Text Guitar Tab

Learn the song with the online tablature player
p = thumb
i = index finger
m = middle finger
a = ring finger

    a m i  a m i  a m i  a m i    a m
e |-6------6------6------6--------6----|
b |---7------7------7------7--------7--|
g |-----6------6------6------6---------|
d |------------------------------------|
a |------------------------------------|
E |------------------------------------|

    a m i  a m i  a m i  a m i   a m
e |-4------4------4------4-------4-----|
b |---5------5------5------5-------5---|
g |-----4------4------4------4---------|
d |------------------------------------|
a |------------------------------------|
E |------------------------------------|

    a m i  a m i  a m i  a m i   a m
e |-2------2------2------2-------2-----|
b |---3------3------3------3-------3---|
g |-----2------2------2------2---------|
d |------------------------------------|
a |------------------------------------|
E |------------------------------------|

e |-1----1---1-1-1---------------------|
b |-2----2---2-2-2---------------------|
g |-1----1---1-1-1---------------------|
                |let ring--------------|

cheers