Misc. Unsigned Bands - Ivoryline - All You Ever Hear Text Guitar Tab

Learn the song with the online tablature player
                             All You Ever Hear - Ivoryline

pm - palm mute
X - mute
h - hammer on

Intro
I couldnt get the Gtr II part but i got Gtr I right)

Gtr I * with reverbish effect
e|-------------------------------------------------------------------------|
B|-------------------------------------------------------------------------|
G|-/333-5555-6666-88888-11111111-1010101010-1313131313131313-repeat--------|
D|-------------------------------------------------------------------------|
A|-------------------------------------------------------------------------|
D|-------------------------------------------------------------------------|

Verse

e|-------------------------------------------------------------------------|
B|-------------------------------------------------------------------------|
G|-------------------------------------------------------------------------|
D|--8-8--6h8-6h8-XXX-XXX---------------------------------------------------|
A|--8-8--6h8-6h8-XXX-XXX-repeat as necessary-------------------------------|
D|--8-8--6h8-6h8-XXX-XXX---------------------------------------------------|

Chorus

e|-------------------------------------------------------------------------|
B|---------------------------99-77-6666------------------------------------|
G|---------------------------XX-XX-XXXX------------------------------------|
D|-444444446666666688888888--66-44-3333------------------------------------|
A|-444444446666666688888888------------------------------------------------|
D|-444444446666666688888888------------------------------------------------|

Song Outro
*Palm Mute
e|-------------------------------------------------------------------------|
B|-------------------------------------------------------------------------|
G|-------------------------------------------------------------------------|
D|-------------------------------------------------------------------------|
A|pm--444444444-6666-3333-11111111-77777777---repeat as necessary----------|
D|-------------------------------------------------------------------------|