Misc. Unsigned Bands - Jackson20n8 - Rockaholics Text Guitar Tab

Learn the song with the online tablature player
youtube.com/jackson20n8
Rockaholics Instrumental
Music by
jackson20n8
Sound settings for Intro + Verses
Insane Overdrive, 10 Drive, 10 Bass, 4 Mid, 4 Treble, 10 Channel, use a Phaser pedal
INTRO

e|-----5-5---------5-5-----------------------|
B|---------3-5-5~~~------3h5p3-0-0-3h5-5-----|
G|-------------------------------------------|             x2)
D|-------------------------------------------|
A|-------------------------------------------|
E|-------------------------------------------|
On second ending, add this:
E|---------------------------------------------|
B|---h8p5---5----------------------------------|
g|--------7------------------------------------|
D|---------------------------------------------|
A|---------------------------------------------|
E|---------------------------------------------|

Verses

e|------------------------------|
B|------------------------------|
G|7-----------------------------|
D|5-7---------------------------| x6
A|--5-7s9-----------------------|
E|----5s7-----------------------|

Chorus
e|-5-7-5-3--------------|
b|3-3-3-3---------------|
g|----------------------|
d|----------------------|
a|----------------------|  x5
e|----------------------|

Outro
Same as intro w/out repeat
and w/ second ending