Misc. Unsigned Bands - Jakewolf - Ily Text Guitar Tab

Learn song with the online tabulature player
e------------------------|
b------------------------|
g------------------------|
D-------3/5-------1-h3---|
A--1/3-------------------|
E------------3-1---------|

play that a few times and then put this on the end it

e----------------------|
b----------------------|
g----------------------|
D-3-h5--1-h3-----------|
A------------1-h3------|
E-----------------1----|h3

sorry if thats confusing. just try playin it with the song