Misc. Unsigned Bands - James Mountain - Like A River Glorious Text Guitar Tab

Learn song with the online tabulature player
Like a River Glorious   Time Signature: 2/2
Words: Frances R. Havergal      Key Signature: F
Music: James Mountain


e  ------------------------------------------------------------------|
B  -----------------------1-----0--0---------------------------------|
G  --------0--0----2-------------------0--0------2-------3--3--0--0--|
D  --2--0-----------------1-----0--0---------------------------------|
A  --3--3--3--3----3-------------------3--3------3-------3--3--3--3--|
E  ------------------------------------------------------------------|


e --------------------------------------------------------------------------|
B -----------------------------------------1--1--1--1-----3--1--------------|
G --2----0------------------------------------------------------3--3--2--2--|
D -------------2--2--0--0---------------3--3--2--3-----3--3-----3--2--3--3--|
A --3----3-----3--3--0--2-------3-------------------------------------------|
E --------------------------------------------------------------------------|

e  -------------------------------------------------------------|
B  -------------------------------------------------------------|
G  -----0-------2--2--0--0---------0------2--2--0--0------------|
D  -----2-------3--3--2--2-----3---0---------3--0--2------3-----|
A  ----------------------------5----------3---------------3-----|
E  -------------------------------------------------------------|

e --------------------------------------------------------------------------------------------|
B --1--1--1--1---3----1-----------------------------------------------------------------------|
G ------------------------3--3--2--2-------0--------2--2--0--0-------0-----2--2--0--0---------|
D --3--3--2--3---3----3---3--2--3--3-------2--------3--3--2--2----3--0--------3--3--2------3--|
A ----------------------------------------------------------------5--------3---------------3--|
E --------------------------------------------------------------------------------------------|