Misc. Unsigned Bands - Jdawg And Associates - Deacon Collects Offering Text Guitar Tab

Learn song with the online tabulature player
Deacon Collects Offering
Jdawg And Associates

These guys rock, somebody should put some more tabs by them on here. The unsigned wonder.

e|--------------------------------------------------------------------|
B|------8------10-8------8-----10------10-------12-----10-------12----|
G|----9------9---------9-----9-------9----9---9----9--9---9---9----9--|
D|-10------0--------10-----0------------------------------------------|
A|--------------------------------------------------------------------|
E|--------------------------------------------------------------------|

e|------------------------------------------------------------|
B|----8----10----8----10----10----12---10---12-10-8-10-8-10-8-|
G|----9--9-9-----9--9-9---9-9---9-9--9-9--9-9-----------------|
D|-10--------10-----------------------------------------------|
A|------------------------------------------------------------|
E|------------------------------------------------------------|
theres some light picking in between some silences but i can't figure it out

e|----|  |----|  |----| |----|
B|-8--|  |-10-|  |-10-| |-12-|
G|-9--|  |-9--|  |-9--| |-9--|
D|-10-|  |----|  |----| |----|
A|----|  |----|  |----| |----|
E|----|  |----|  |----| |----|
strum each chord a bunch of times (around 7-9), strum the 1st 2 twice and the 2nd 2 twice.

Then guitar 1 strums: Am, G, Em, D
while guitar 2 does a crazy solo