Misc. Unsigned Bands - Jeff And Cicily - Sweet Melody Text Guitar Tab

Learn the song with the online tablature player
this is a pretty simple song or at least my version is but
i'm sure this is close enough that you'll be satisfied.
it's very repetitive so you'll get it pretty quickly.
it helps if you play w/ someone singing so either
listen to the song or have someone sing for you and if
i got ne of the repeating things wrong you'll know when
to transition. have fun!
GOD BLESS!!! ^_^

key:
     h = hammer
     ^ = raise finger quickly

if it helps, my advice is to hold down the 2nd string
on 3rd fret and move it when needed.

intro

e|------0h2-0-0-----------0---0------------|
B|-----3-----3----3---3---3---3---2h3-3----|
G|--------------0---0---0---0---0----------|
D|-0---------------------------------------|
A|--------------------2-------0------------|
E|-----------------------------------------|

e|-------2h3^2-0-0-----------0---0---------|
B|-----3--------3----3---3---3---3---2h3-3-|
G|-----------------0---0---0---0---0-------|
D|-0---------------------------------------|
A|-----------------------2-------0---------|
E|-----------------------------------------|

verse

e|-----0---0-----------0---0---------------|
B|-----3---3---3---3---3---3---2h3-3-------|
G|---0---0---0---0---0---0---0-------------|
D|-0---------------------------------------|
A|---------0-------2-------0---------------|
E|-----------------------------------------| 5x

between verses (interlude?):

e|-----5---5-----------0---0---------------|
B|-------3-----3---3---3---3---2h3-3-------|
G|---0-------0---0---0---0---0-------------|
D|-0---------------------------------------|
A|-----------------2-------0---------------|
E|-----------------------------------------| 1x

here's the very ending part:
(starting @ "for you have more to...")

e|-----5---5-----------0---0---------------|
B|-------3-----3---3-----3---3-2h3-3-------|
G|---0-------0---0---0---------------------|
D|-0---------------------------------------|
A|-----------------2-----------------------|
E|-----------------------------------------|

e|-----0---0-----------0-------------------0---|
B|-----3---3---3---3---3--3----2h3-3-----3-----|
G|---0---0---0---0---0---0---0---------2-------|
D|-0---------------------------------0---------|
A|---------0-------2-------0-------------------|
E|---------------------------------------------|

strum this to finish

e|-0h2---|
B|-3-----|
G|-2-----|
D|-0-----|
A|-------|
E|-------|