Misc. Unsigned Bands - Jeff Cicily Kong - Sweet Melody Text Guitar Tab

Learn the song with the online tablature player
D - 000232
Asus - 002230
Bm - 020230
Dsus - 000235

Intro
e|------------0h2p0--------0-----------------0-----0-----------------|
B|---------3---------3-----3-----3-----3-----3-----3-----2h3-----3---|
G|------2---------------2-----2-----2-----2-----2-----2--0----0------|
D|---0---------------------------------------------------------------|
A|-------------------------0-----------2-----------0-----------------|
E|-------------------------------------------------------------------|

e|------------2h3p2--0-----0-----------------0-----0-----------------|
B|---------3------------3--3-----3-----3-----3-----3-----2h3-----3---|
G|------2---------------------2-----2-----2-----2-----2--0----0------|
D|---0---------------------------------------------------------------|
A|-------------------------0-----------2-----------0-----------------|
E|-------------------------------------------------------------------|

Verse
My life is like...
e|---------0-----------0-----------0-----0---------------------------|
B|------------3-----------3--------3-----3-----2h3-----3-------------|
G|------2-----------2-----------2-----2-----2--0----0----------------|
D|---0---------------------------------------------------------------|
A|---------------0-----------2-----------0---------------------------|
E|-------------------------------------------------------------------|

Between Verses:
e|---------5-----5-----------------0-----0---------------------------|
B|---------3-----3-----3-----3-----3-----3-----2h3-----3-------------|
G|------2-----2-----2-----2-----2-----2-----2--0----0----------------|
D|---0-----------0---------------------------------------------------|
A|---------------------------2-----------0---------------------------|
E|-------------------------------------------------------------------|

Outro
e|------------0h2p0--------0-----------------0-----0-------------------------0--0h2---|
B|---------3---------3-----3-----3-----3-----3-----3-----2h3-----3--------3-----3-----|
G|------2---------------2-----2-----2-----2-----2-----2--0----0--------2--------2-----|
D|---0--------------------------------------------------------------0-----------0-----|
A|-------------------------0-----------2-----------0----------------------------------|
E|------------------------------------------------------------------------------------|