Misc. Unsigned Bands - Jenna Anne - Wonderwall Text Guitar Tab

Learn the song with the online tablature player
|--0-------x--0-------x--0-------x--0-------0--|
|--0-------x--0-------x--0-------x--0-------0--|
|--0-------x--0-------x--0-------x--0-------0--|
|----------x----------x----------x-------------|
|----------x----------x--0-------x--3-------2--|
|--0-------x--3-------x----------x-------------|

VERSE

|--0-------x--0-------x--0-------x--0-------0--|
|--0-------x--0-------x--0-------x--0-------0--|
|--0-------x--0-------x--0-------x--0-------0--|
|----------x----------x----------x-------------|                x4
|----------x----------x--0-------x--3-------2--|
|--0-------x--3-------x----------x-------------|

|--------0-x--------0-x--------0-x--------0-------0--|
|------0---x------0---x------0---x------0-------0----|
|----0-----x----0-----x----0-----x----0-------0------|
|----------x----------x----------x-------------------|          x4
|----------x----------x--0-------x--3-------2--------|
|--0-------x--3-------x----------x-------------------|

PRE-CHORUS
|--------0-------0-------0-------0-------0-------0-------0-------0--|
|------0-------0-------0-------0-------0-------0-------0-------0----|
|----0-------0-------0-------0-------0-------0-------0-------0------|
|-------------------------------------------------------------------|   x2
|--0-------0-------0-------0----------------------------------------|
|----------------------------------0-------0-------0-------0--------|

|--------0-------0-------0-------0-------0-------0-------0--|
|------0-------0-------0-------0-------0-------0-------0----|
|----0-------0-------0-------0-------0-------0-------0------|
|-----------------------------------------------------------|
|--0-------0-------0-------0-------2-------0----------------|
|--------------------------------------------------3--------|

|------0-------0-------0-------0-------2-------2--2h3p2--------|
|----0-------0-------0-------0-------3-------3----------3------|
|--0-------0-------0-------0-------2-------2--------------2----|
|--------------------------------0-------0------------------0--|
|0-------0-------0-------0-------------------------------------|
|--------------------------------------------------------------|

CHORUS
|--------0-x--------0-x--------2-x--------0--|
|------0---x------0---x------3---x------0----|
|----0-----x----0-----x----2-----x----0------|
|----------x----------x--0-------x-----------|
|--3-------x----------x----------x-----------|
|----------x--3-------x----------x--3--------|

|--------0-x--------0-x--------2h3p2-----------|
|------0---x------0---x------3-----------------|
|----0-----x----0-----x----2-------------------|
|----------x----------x--0---------------------|
|--3-------x----------x------------------------|
|----------x--3-------x------------------------|