Misc. Unsigned Bands - Jennilyn Mercado - Moments Of Love Text Guitar Tab

Learn the song with the online tablature player
-------------------------------------------------------|
--------------------8--10-12-13-12-8----12-13-12--8----|
--------7---------7------------------------------------|
--7/9-9-----7/9-9--------------------------------------|2x
-------------------------------------------------------|
-------------------------------------------------------|
-------------------------------------------------------|

then..

--------10-----------------10-8----8-------------------|
--12-10----12-10-8--5-(5)-------12----12--10-8-10------|
-------------------------------------------------------|2x
-------------------------------------------------------|
-------------------------------------------------------|
-------------------------------------------------------|

-------------------------------------------------------|
---13-12----8-8----------------------------------------|
-------------------------------------------------------|
-------------------------------------------------------|
-------------------------------------------------------|
-------------------------------------------------------|

"to give your best..recall a time in your life when you lost your equilibrium and felt
depressed..did you call out to jesus,
who always helps you to carry your cross??"