Misc. Unsigned Bands - Jenny O - Wont Let You Leave Text Guitar Tab

Learn the song with the online tablature player
                             WON'T LET YOU LEAVE - JENNY O

Chords: C, Am

   1 e + a 2 e + a 3 e + a 4 e + a|1 e + a 2 e + a 3 e + a 4 e + a
e|-----3-----3-----3p0-------0-----0h3-------3-----3p0------0----------------|
B|-----------------------1---------------1---------------1-------------------|
G|-----0-------0-------0-------0-------0-------0-------0-------0-------------|
D|---------------------------------------------------------------------------|
A|-3-------3-------3-------3-------3-------3-------3-------3-----------------|
E|---------------------------------------------------------------------------|

e|-----------0---------------0-------------------------------0---------------|
B|-0h1---1---------0h1---1-------------1-----1-----0h1---1-------------------|
G|-----2-------2-------2-------2-------2-------2-------2-------2-------------|
D|---------------------------------------------------------------------------|
A|-0-------0-------0-------0-------0-------0-------0-------0-----------------|
E|---------------------------------------------------------------------------|