Misc. Unsigned Bands - Jentry Chesnut - I Gotta Story To Tell Text Guitar Tab

Learn the song with the online tablature player
I gotta story to tell - Misc. Unsigned band

| /  slide up
| \  slide down
| h  hammer-on
| p  pull-off
| ~  vibrato
| +  harmonic
| x  Mute note
| .  Palm Mute

Intro

e|---------------------------------------------------------------|
B|---------------------------------------------------------------|
G|---------------------------------------------------------------|
D|------------6~------------4~-----------8~------------2--1~-----|
A|----4---4--------2---2--------6---6------------4---------------|
E|------------------------------------------2--------------------|

e|---------------------------------------------------------------|
B|---------------------------------------------------------------|
G|---------------------------------------------------------------|
D|------------6~------------4~-----------8~------------2--1~-----|
A|----4---4--------2---2--------6---6------------4---------------|
E|------------------------------------------2--------------------|

Verse

e|---------------------------------------------------------------|
B|---------------------------------------------------------------|
G|---------------------------------------------------------------|
D|------------6~------------4~-----------8~------------2--1~-----|
A|----4---4--------2---2--------6---6------------4---------------|
E|------------------------------------------2--------------------|

e|---------------------------------------------------------------|
B|---------------------------------------------------------------|
G|---------------------------------------------------------------|
D|------------6~------------4~-----------8~------------2--1~-----|
A|----4---4--------2---2--------6---6------------4---------------|
E|------------------------------------------2--------------------|

e|---------------------------------------------------------------|
B|---------------------------------------------------------------|
G|---------------------------------------------------------------|
D|------------6~------------4~-----------8~------------2--1~-----|
A|----4---4--------2---2--------6---6------------4---------------|
E|------------------------------------------2--------------------|

e|---------------------------------------------------------------|
B|---------------------------------------------------------------|
G|---------------------------------------------------------------|
D|------------6~------------4~-----------8~------------2--1~-----|
A|----4---4--------2---2--------6---6------------4---------------|
E|------------------------------------------2--------------------|

e|---------------------------------------------------------------|
B|---------------------------------------------------------------|
G|--------------------------------------8------------------------|
D|------------6~------------4~----------8------------------------|
A|----4---4--------2---2----------------6------------------------|
E|---------------------------------------------------------------|

Chorus

e|---------------------------------------------------------------|
B|---------------------------------------------------------------|
G|---6-6----4-4----8-8-8-8---------------------------------------|
D|---6-6----4-4----8-8-8-8----4-4-4-4-4--------------------------| x3
A|---4-4----2-2----6-6-6-6----4-4-4-4-4--------------------------|
E|----------------------------2-2-2-2-2--------------------------|

e|---------------------------------------------------------------|
B|---------------------------------------------------------------|
G|---6-6---------------------------------------------------------|
D|---6-6-----------------------X//////////////////////////////---|
A|---4-4-----------------------X//////////////////////////////---|
E|-----------------------------X//////////////////////////////---|

Verse 2

e|---------------------------------------------------------------|
B|---------------------------------------------------------------|
G|---------------------------------------------------------------|
D|------------6~------------4~-----------8~------------2--1~-----|
A|----4---4--------2---2--------6---6------------4---------------|
E|------------------------------------------2--------------------|

e|---------------------------------------------------------------|
B|---------------------------------------------------------------|
G|---------------------------------------------------------------|
D|------------6~------------4~-----------8~------------2--1~-----|
A|----4---4--------2---2--------6---6------------4---------------|
E|------------------------------------------2--------------------|

e|---------------------------------------------------------------|
B|---------------------------------------------------------------|
G|---------------------------------------------------------------|
D|------------6~------------4~-----------8~------------2--1~-----|
A|----4---4--------2---2--------6---6------------4---------------|
E|------------------------------------------2--------------------|

e|---------------------------------------------------------------|
B|---------------------------------------------------------------|
G|---------------------------------------------------------------|
D|------------6~------------4~-----------8~------------2--1~-----|
A|----4---4--------2---2--------6---6------------4---------------|
E|------------------------------------------2--------------------|

e|---------------------------------------------------------------|
B|---------------------------------------------------------------|
G|--------------------------------------8------------------------|
D|------------6~------------4~----------8------------------------|
A|----4---4--------2---2----------------6------------------------|
E|---------------------------------------------------------------|

Chorus

e|---------------------------------------------------------------|
B|---------------------------------------------------------------|
G|---6-6----4-4----8-8-8-8---------------------------------------|
D|---6-6----4-4----8-8-8-8----4-4-4-4-4--------------------------| x3
A|---4-4----2-2----6-6-6-6----4-4-4-4-4--------------------------|
E|----------------------------2-2-2-2-2--------------------------|

e|---------------------------------------------------------------|
B|---------------------------------------------------------------|
G|---6-6---------------------------------------------------------|
D|---6-6-----------------------X//////////////////////////////---|
A|---4-4-----------------------X//////////////////////////////---|
E|-----------------------------X//////////////////////////////---|

Solo

e|---------------------------------------------------------------|
B|---------------------------------------------------------------|
G|----7b--7b9r7p5--------5---------9b--9b11r9p7--------7---------|
D|------------------5h7---------------------------7h9------------|
A|---------------------------------------------------------------|
E|---------------------------------------------------------------|

e|---------------------------------------------------------------|
B|---------------------------------------------------------------|
G|----11b13---11b13---11h13p11-----------------------------------|
D|-------------------------------12~~----------------------------|
A|---------------------------------------------------------------|
E|---------------------------------------------------------------|
                                                         -end solo

e|------------------------------------------------------------------|
B|------------------------------------------------------------------|
G|------------------------------------------------------------------|
D|------------6~--------------4h6p4~-----------8~------------2--1~~-|
A|----4---4------------2---2-----------6---6------------4-----------|
E|-------------------------------------------------2----------------|

Chorus

e|---------------------------------------------------------------|
B|---------------------------------------------------------------|
G|---6-6----4-4----8-8-8-8---------------------------------------|
D|---6-6----4-4----8-8-8-8----4-4-4-4-4--------------------------| x3
A|---4-4----2-2----6-6-6-6----4-4-4-4-4--------------------------|
E|----------------------------2-2-2-2-2--------------------------|

e|---------------------------------------------------------------|
B|---------------------------------------------------------------|
G|---6-6---------------------------------------------------------|
D|---6-6-----------------------X//////////////////////////--4----|
A|---4-4-----------------------X//////////////////////////--4----|
E|-----------------------------X//////////////////////////--2----|

Lyrics:
INTRO
I couldn't help myself
When you were sitting all alone
Yeah..

VERSE 1
When i first looked into your eyes
I fell in love soo quick!!
You take to that special place
I really shouldn't stay too long
'Cause I'd probably break down and cry!

CHORUS
I gotta story to tell
I gotta beautiful story to tell!!
Its the 2nd most beautiful thing in the world
'Cause compared to you,your like an angel sent from above!

VERSE 2
We went out on our first date
We had our very first fight,
but everything turned out fine!!
I plan on spending my life with you
Forever and until the end of time!!

CHORUS
I gotta story to tell
I gotta beautiful story to tell!!
Its the 2nd most beautiful thing in the world
'Cause compared to you,your like an angel sent from above!
This is my story...

Hope you like it...this is an original song written by me,and its also the first
tab i ever put on here so, Enjoy!