Misc. Unsigned Bands - Jesse Ruben - Bleecker And 6th Text Guitar Tab

Learn song with the online tabulature player
tabbed by: shaneburchmusic
listen here: http://lllmusic.blogspot.com/2011/03/jesse-ruben-bleecker-and-6th.html

Capo on 3rd fret

Intro / Verse:

e-----2---2---2---2---0---2---3-2-----------------------------------|
b-----3---3---3---3---3---3---3-3-----------------------------------|
g-----2---3-------2---0---2-----------------------------------------|
d-----0-----------0---0---0---2-------------------------------------|
a---------4---2---0---0-------2-2-----------------------------------|
E---------------------3---------------------------------------------|

Pre-Chorus: Repeat 2

"Cause she's been so deceived, And she thinks that she needs to be fixed"
e-------------0------------------------2------------------------------------|
b-------------3------------------------3----------------------------3-------|
g-------------0------------------------2------------------------------------|
d-------------0-----------------------------------------------------2-------|
a-------------0-----------------------------------------------------2-------|
E-------------3-------------------------------------------------------------|

Chorus:

"And this city is scary when, No one is there to share it with."
e-----------------------------0---------------------------------2-----0----|
b----------3------------------3---------------------------3-----3-----3----|
g----------4------------------0---------------------------4-----2-----0----|
d----------4------------------0---------------------------4-----------0----|
a----------2------------------0---------------------------2-----------0----|
E-----------------------------3---------------------------------------3----|