Misc. Unsigned Bands - Jew Gold Diggers - Declined Love Text Guitar Tab

Learn the song with the online tablature player
Artist jew gold diggers
 Song  declined love
 Album my love has been declined

Chorus
|-------------------------|
|-------------------------|
|-4--4-4-4-0--4-----0-/9--|
|-4--4-4-4-0--4-----0-/9--|
|-2--2-2-2-0--2-----0-/7--|
|-------------------------|

End With
|-------------------------------------------|
|-------------------------------------------|
|-4-----------------------------------------|
|-4-----------------4-----------------------|
|-2--2---2-----2----4-----------------------|
|-------------------2---2----2-------2--0---|