Misc. Unsigned Bands - John Martin - Just Drive Text Guitar Tab

Learn the song with the online tablature player
John Martin
Just Drive

By Kvaks

E--5--3--0-------------------|-----------0--0-------------|
B-----------3--1-------------|--1--3--3-------------------|
G--2-----0-------------------|--------0-----2--2--2--2--2-|
D--------------3--3--3--3--3-|--3-------------------------|
A----------------------------|----------------------------|
E----------------------------|----------------------------|

E--5--3--0-------------------|----------------------------|
B-----------3--1-------------|----------------------------|
G--2-----0-----3--3--3--3--3-|----------------------------|
D----------------------------|-----0--0--2--2-------------|
A----------------------------|--3-----------0--0--0--0--0-|
E----------------------------|--1-----3-------------------|

E----------------------------|----------------------------|
B----------------------------|----------------------------|
G--2--0----------------------|----------------------------|
D--------2--0----------------|-----0--0--2--2-------------|  x6
A--0-----------3-------------|--3-----------0--0--0--0--0-|
E--------0-----1--1--1--1--1-|--1-----3-------------------|

E--5--3--0-------------------|-----------0--0-------------|
B-----------3--1-------------|--1--3--3-------------------|
G--2-----0-------------------|--------0-----2--2--2--2--2-|
D--------------3--3--3--3--3-|--3-------------------------|
A----------------------------|----------------------------|
E----------------------------|----------------------------|

E--5--3--0-------------------|----------------------------|
B-----------3--1-------------|----------------------------|
G--2-----0-----3--3--3--3--3-|----------------------------|
D----------------------------|-----0--0--2--2-------------|
A----------------------------|--3-----------0--0--0--0--0-|
E----------------------------|--1-----3-------------------|

E----------------------------|----------------------------|
B----------------------------|----------------------------|
G--2--0----------------------|----------------------------|
D--------2--0----------------|-----0--0--2--2-------------|  x6
A--0-----------3-------------|--3-----------0--0--0--0--0-|
E--------0-----1--1--1--1--1-|--1-----3-------------------|

E--5--3--0-------------------|-----------0--0-------------|
B-----------3--1-------------|--1--3--3-------------------|
G--2-----0-------------------|--------0-----2-------------|
D--------------3-------------|--3-------------------------|
A----------------------------|----------------------------|
E----------------------------|----------------------------|

E--5--3--0-------------------|----------------------------|
B-----------3--1-------------|----------------------------|
G--2-----0-----3-------------|----------------------------|
D----------------------------|-----0--0--2--2-------------|
A----------------------------|--3-----------0--0----------|
E----------------------------|--1-----3-------------------|